  0
SECTION
  2
HEADER
  9
$ACADVER
  1
AC1009
  9
$ANGBASE
 50
       0.000000
  9
$ANGDIR
 70
     0
  9
$ATTDIA
 70
     0
  9
$ATTMODE
 70
     0
  9
$ATTREQ
 70
     0
  9
$AUNITS
 70
     0
  9
$AUPREC
 70
     1
  9
$BLIPMODE
 70
     1
  9
$CECOLOR
 62
   256
  9
$CELTYPE
  6
BYLAYER
  9
$CHAMFERA
 40
       0.000000
  9
$CHAMFERB
 40
       0.000000
  9
$CLAYER
  8
0
  9
$COORDS
 70
     1
  9
$DIMALT
 70
     0
  9
$DIMALTD
 70
     2
  9
$DIMALTF
 40
      25.400000
  9
$DIMAPOST
  1

  9
$DIMASO
 70
     0
  9
$DIMASZ
 40
      27.071966
  9
$DIMBLK
  1

  9
$DIMBLK1
  1

  9
$DIMBLK2
  1

  9
$DIMCEN
 40
      11.602271
  9
$DIMCLRD
 70
     0
  9
$DIMCLRE
 70
     0
  9
$DIMCLRT
 70
     0
  9
$DIMDLE
 40
       0.000000
  9
$DIMDLI
 40
      54.143932
  9
$DIMEXE
 40
      13.922726
  9
$DIMEXO
 40
       0.773485
  9
$DIMGAP
 40
       0.696136
  9
$DIMLFAC
 40
       1.000000
  9
$DIMLIM
 70
     0
  9
$DIMPOST
  1

  9
$DIMRND
 40
       0.000000
  9
$DIMSAH
 70
     0
  9
$DIMSCALE
 40
       1.000000
  9
$DIMSE1
 70
     0
  9
$DIMSE2
 70
     0
  9
$DIMSHO
 70
     1
  9
$DIMSOXD
 70
     0
  9
$DIMSTYLE
  2
*UNNAMED
  9
$DIMTAD
 70
     1
  9
$DIMTFAC
 40
       1.000000
  9
$DIMTIH
 70
     0
  9
$DIMTIX
 70
     0
  9
$DIMTM
 40
       0.000000
  9
$DIMTOFL
 70
     0
  9
$DIMTOH
 70
     0
  9
$DIMTOL
 70
     0
  9
$DIMTP
 40
       0.000000
  9
$DIMTSZ
 40
       0.000000
  9
$DIMTVP
 40
       0.000000
  9
$DIMTXT
 40
      27.071966
  9
$DIMZIN
 70
     0
  9
$DRAGMODE
 70
     2
  9
$DWGCODEPAGE
  3
iso8859-1
  9
$ELEVATION
 40
       0.000000
  9
$EXTMAX
 10
    3425.628174
 20
    2165.757324
 30
       0.000000
  9
$EXTMIN
 10
       0.000000
 20
       0.000000
 30
       0.000000
  9
$FILLETRAD
 40
       0.000000
  9
$FILLMODE
 70
     1
  9
$HANDLING
 70
     0
  9
$HANDSEED
  5
0
  9
$INSBASE
 10
       0.000000
 20
       0.000000
 30
       0.000000
  9
$LIMCHECK
 70
     0
  9
$LIMMAX
 10
    3425.628174
 20
    2165.757324
  9
$LIMMIN
 10
       0.000000
 20
       0.000000
  9
$LTSCALE
 40
       7.734848
  9
$LUNITS
 70
     2
  9
$LUPREC
 70
     2
  9
$MAXACTVP
 70
    16
  9
$MENU
  1
ACAD
  9
$MIRRTEXT
 70
     0
  9
$ORTHOMODE
 70
     0
  9
$OSMODE
 70
     0
  9
$PDMODE
 70
     0
  9
$PDSIZE
 40
       0.000000
  9
$PELEVATION
 40
       0.000000
  9
$PEXTMAX
 10
    3425.628174
 20
    2165.757324
 30
       0.000000
  9
$PEXTMIN
 10
       0.000000
 20
       0.000000
 30
       0.000000
  9
$PINSBASE
 10
       0.000000
 20
       0.000000
 30
       0.000000
  9
$PLIMCHECK
 70
     0
  9
$PLIMMAX
 10
    3425.628174
 20
    2165.757324
  9
$PLIMMIN
 10
       0.000000
 20
       0.000000
  9
$PLINEGEN
 70
     0
  9
$PLINEWID
 40
       0.000000
  9
$PSLTSCALE
 70
     1
  9
$PUCSNAME
  2

  9
$PUCSORG
 10
       0.000000
 20
       0.000000
 30
       0.000000
  9
$PUCSXDIR
 10
       1.000000
 20
       0.000000
 30
       0.000000
  9
$PUCSYDIR
 10
       0.000000
 20
       1.000000
 30
       0.000000
  9
$QTEXTMODE
 70
     0
  9
$REGENMODE
 70
     1
  9
$SHADEDGE
 70
     3
  9
$SHADEDIF
 70
    70
  9
$SKETCHINC
 40
       7.734848
  9
$SKPOLY
 70
     0
  9
$SPLFRAME
 70
     0
  9
$SPLINESEGS
 70
     8
  9
$SPLINETYPE
 70
     6
  9
$SURFTAB1
 70
     6
  9
$SURFTAB2
 70
     6
  9
$SURFTYPE
 70
     6
  9
$SURFU
 70
     6
  9
$SURFV
 70
     6
  9
$TDCREATE
 40
2455093.4562499998
  9
$TDINDWG
 40
       0.000000
  9
$TDUPDATE
 40
2455093.4562499998
  9
$TDUSRTIMER
 40
       0.000000
  9
$TEXTSIZE
 40
      27.071966
  9
$TEXTSTYLE
  7
STANDARD
  9
$THICKNESS
 40
       0.000000
  9
$TILEMODE
 70
     1
  9
$TRACEWID
 40
       7.734848
  9
$TREEDEPTH
 70
 -3020
  9
$UCSNAME
  2

  9
$UCSORG
 10
       0.000000
 20
       0.000000
 30
       0.000000
  9
$UCSXDIR
 10
       1.000000
 20
       0.000000
 30
       0.000000
  9
$UCSYDIR
 10
       0.000000
 20
       1.000000
 30
       0.000000
  9
$UNITMODE
 70
     0
  9
$USERI1
 70
     0
  9
$USERI2
 70
     0
  9
$USERI3
 70
     0
  9
$USERI4
 70
     0
  9
$USERI5
 70
     0
  9
$USERR1
 40
       0.000000
  9
$USERR2
 40
       0.000000
  9
$USERR3
 40
       0.000000
  9
$USERR4
 40
       0.000000
  9
$USERR5
 40
       0.000000
  9
$USRTIMER
 70
     0
  9
$VISRETAIN
 70
     0
  9
$WORLDVIEW
 70
     1
  0
ENDSEC
  0
SECTION
  2
TABLES
  0
TABLE
  2
LTYPE
 70
   153
  0
LTYPE
  2
AUSGEZOGEN
 70
     0
  3
________________________________
 72
    65
 73
     2
 40
16.
 49
16.
 49
0.
  0
LTYPE
  2
VERDECKTE_KANTE
 70
     0
  3
_________________________
 72
    65
 73
     2
 40
5.
 49
3.906
 49
-1.094
  0
LTYPE
  2
HILFSLINIE
 70
     0
  3
________________________________
 72
    65
 73
     2
 40
16.
 49
16.
 49
0.
  0
LTYPE
  2
BRUCHLINIE
 70
     0
  3
________________________________
 72
    65
 73
     2
 40
16.
 49
16.
 49
0.
  0
LTYPE
  2
MITTELLINIE
 70
     0
  3
________________________   __
 72
    65
 73
     4
 40
13.
 49
9.75
 49
-1.22
 49
0.81
 49
-1.22
  0
LTYPE
  2
SCHNITTLINIE
 70
     0
  3
________________________   __
 72
    65
 73
     4
 40
13.
 49
9.75
 49
-1.22
 49
0.81
 49
-1.22
  0
LTYPE
  2
SCHWERLINIE
 70
     0
  3
_____________________  __  __
 72
    65
 73
     6
 40
15.
 49
9.84
 49
-0.94
 49
0.94
 49
-0.94
 49
0.94
 49
-1.41
  0
LTYPE
  2
ENTWURFSLINIE
 70
     0
  3
__      __      __      __
 72
    65
 73
     8
 40
16.
 49
1.
 49
-3.
 49
1.
 49
-3.
 49
1.
 49
-3.
 49
1.
 49
-3.
  0
LTYPE
  2
SONDERLINIE1
 70
     0
  3
____ ____ ____ ____ ____ ____ _
 72
    65
 73
    12
 40
16.
 49
2.
 49
-0.5
 49
2.
 49
-0.5
 49
2.
 49
-0.5
 49
2.
 49
-0.5
 49
2.
 49
-0.5
 49
2.
 49
-0.5
  0
LTYPE
  2
SONDERLINIE2
 70
     0
  3
_____________________  __  __
 72
    65
 73
     6
 40
15.
 49
9.84
 49
-0.94
 49
0.94
 49
-0.94
 49
0.94
 49
-1.41
  0
LTYPE
  2
SONDERLINIE3
 70
     0
  3
__________________  __  __  __
 72
    65
 73
     8
 40
16.
 49
9.
 49
-1.
 49
1.
 49
-1.
 49
1.
 49
-1.
 49
1.
 49
-1.
  0
LTYPE
  2
SONDERLINIE4
 70
     0
  3
__________________  __  __  __
 72
    65
 73
     8
 40
16.
 49
9.
 49
-1.
 49
1.
 49
-1.
 49
1.
 49
-1.
 49
1.
 49
-1.
  0
LTYPE
  2
SONDERLINIE5
 70
     0
  3
______________  __  __  __  __
 72
    65
 73
    10
 40
16.
 49
7.
 49
-1.
 49
1.
 49
-1.
 49
1.
 49
-1.
 49
1.
 49
-1.
 49
1.
 49
-1.
  0
LTYPE
  2
SONDERLINIE6
 70
     0
  3
______________  __  __  __  __
 72
    65
 73
    10
 40
16.
 49
7.
 49
-1.
 49
1.
 49
-1.
 49
1.
 49
-1.
 49
1.
 49
-1.
 49
1.
 49
-1.
  0
LTYPE
  2
SONDERLINIE7
 70
     0
  3
__________  __  __  __  __  __
 72
    65
 73
    12
 40
16.
 49
5.
 49
-1.
 49
1.
 49
-1.
 49
1.
 49
-1.
 49
1.
 49
-1.
 49
1.
 49
-1.
 49
1.
 49
-1.
  0
LTYPE
  2
SONDERLINIE8
 70
     0
  3
__________  __  __  __  __  __
 72
    65
 73
    12
 40
16.
 49
5.
 49
-1.
 49
1.
 49
-1.
 49
1.
 49
-1.
 49
1.
 49
-1.
 49
1.
 49
-1.
 49
1.
 49
-1.
  0
LTYPE
  2
HEIZUNG-VORLAUF
 70
     0
  3
 
 72
    65
 73
     2
 40
16.
 49
16.
 49
0.
  0
LTYPE
  2
HEIZUNG-RUECKLAUF
 70
     0
  3
 
 72
    65
 73
     2
 40
5.
 49
4.063
 49
-0.938
  0
LTYPE
  2
TRINKWASSER-KALT
 70
     0
  3
 
 72
    65
 73
     2
 40
16.
 49
16.
 49
0.
  0
LTYPE
  2
TRINKWASSER-WARM
 70
     0
  3
 
 72
    65
 73
     2
 40
5.
 49
4.063
 49
-0.938
  0
LTYPE
  2
TRINKWASSER-ZIRKULATION
 70
     0
  3
 
 72
    65
 73
     4
 40
13.
 49
9.34
 49
-1.22
 49
1.22
 49
-1.22
  0
LTYPE
  2
SANITAER-SCHMUTZWASSER
 70
     0
  3
 
 72
    65
 73
     2
 40
16.
 49
16.
 49
0.
  0
LTYPE
  2
SANITAER-REGENWASSER
 70
     0
  3
 
 72
    65
 73
     2
 40
5.
 49
4.063
 49
-0.938
  0
LTYPE
  2
SANITAER-MISCHWASSER
 70
     0
  3
 
 72
    65
 73
     4
 40
13.
 49
9.34
 49
-1.22
 49
1.22
 49
-1.22
  0
LTYPE
  2
SANITAER-ENTLUEFTUNG
 70
     0
  3
 
 72
    65
 73
     2
 40
5.
 49
4.063
 49
-0.938
  0
LTYPE
  2
SPRINKLER
 70
     0
  3
 
 72
    65
 73
     2
 40
16.
 49
16.
 49
0.
  0
LTYPE
  2
WERKWASSER
 70
     0
  3
 
 72
    65
 73
     2
 40
16.
 49
16.
 49
0.
  0
LTYPE
  2
KUEHLWASSER-VL
 70
     0
  3
 
 72
    65
 73
     2
 40
16.
 49
16.
 49
0.
  0
LTYPE
  2
KUEHLWASSER-RL-D
 70
     0
  3
 
 72
    65
 73
     2
 40
5.
 49
4.063
 49
-0.938
  0
LTYPE
  2
KUEHLWASSER-RL-DI
 70
     0
  3
 
 72
    65
 73
     2
 40
5.
 49
4.063
 49
-0.938
  0
LTYPE
  2
KALTWASSER-KAELTEANL--VL
 70
     0
  3
 
 72
    65
 73
     2
 40
16.
 49
16.
 49
0.
  0
LTYPE
  2
KALTWASSER-KAELTEANL--RL
 70
     0
  3
 
 72
    65
 73
     2
 40
5.
 49
4.063
 49
-0.938
  0
LTYPE
  2
SCHLEIFEMULSION
 70
     0
  3
 
 72
    65
 73
     2
 40
16.
 49
16.
 49
0.
  0
LTYPE
  2
BOHREMULSION
 70
     0
  3
 
 72
    65
 73
     2
 40
16.
 49
16.
 49
0.
  0
LTYPE
  2
SCHNEIDEMULSION
 70
     0
  3
 
 72
    65
 73
     2
 40
16.
 49
16.
 49
0.
  0
LTYPE
  2
DRUCKLUFT-HAUPTNETZ
 70
     0
  3
 
 72
    65
 73
     2
 40
16.
 49
16.
 49
0.
  0
LTYPE
  2
DRUCKLUFT-HOCHDRUCKNETZ
 70
     0
  3
 
 72
    65
 73
     2
 40
16.
 49
16.
 49
0.
  0
LTYPE
  2
DRUCKLUFT-NIEDERDRUCKNETZ
 70
     0
  3
 
 72
    65
 73
     2
 40
16.
 49
16.
 49
0.
  0
LTYPE
  2
MISCHWASSER-DRUCK
 70
     0
  3
 
 72
    65
 73
     2
 40
16.
 49
16.
 49
0.
  0
LTYPE
  2
MISCHWASSER-KANAL
 70
     0
  3
 
 72
    65
 73
     2
 40
16.
 49
16.
 49
0.
  0
LTYPE
  2
OELHALTIGES-ABWASSER-DRUCK
 70
     0
  3
 
 72
    65
 73
     2
 40
16.
 49
16.
 49
0.
  0
LTYPE
  2
OELHALTIGES-ABWASSER-KANAL
 70
     0
  3
 
 72
    65
 73
     2
 40
16.
 49
16.
 49
0.
  0
LTYPE
  2
REGENWASSER-DRUCK
 70
     0
  3
 
 72
    65
 73
     2
 40
16.
 49
16.
 49
0.
  0
LTYPE
  2
REGENWASSER-KANAL
 70
     0
  3
 
 72
    65
 73
     2
 40
16.
 49
16.
 49
0.
  0
LTYPE
  2
SCHMUTZWASSER-DRUCK
 70
     0
  3
 
 72
    65
 73
     2
 40
16.
 49
16.
 49
0.
  0
LTYPE
  2
SCHMUTZWASSER-KANAL
 70
     0
  3
 
 72
    65
 73
     2
 40
16.
 49
16.
 49
0.
  0
LTYPE
  2
ALTEMULSION
 70
     0
  3
 
 72
    65
 73
     2
 40
16.
 49
16.
 49
0.
  0
LTYPE
  2
ALTWASCHWASSER
 70
     0
  3
 
 72
    65
 73
     2
 40
16.
 49
16.
 49
0.
  0
LTYPE
  2
CHROMHALTIGES-SPUELWASSER
 70
     0
  3
 
 72
    65
 73
     2
 40
16.
 49
16.
 49
0.
  0
LTYPE
  2
CYANIDHALTIGES-SPUELWASSER
 70
     0
  3
 
 72
    65
 73
     2
 40
16.
 49
16.
 49
0.
  0
LTYPE
  2
GEKLAERTES-ABWASSER
 70
     0
  3
 
 72
    65
 73
     2
 40
16.
 49
16.
 49
0.
  0
LTYPE
  2
NITRITHALTIGES-SPUELWASSER
 70
     0
  3
 
 72
    65
 73
     2
 40
16.
 49
16.
 49
0.
  0
LTYPE
  2
SAURES-ALKALISCHES-ELUAT
 70
     0
  3
 
 72
    65
 73
     2
 40
16.
 49
16.
 49
0.
  0
LTYPE
  2
SAURES-ALKALISCHES-SPUELWASSER
 70
     0
  3
 
 72
    65
 73
     2
 40
16.
 49
16.
 49
0.
  0
LTYPE
  2
AMIDASULFONSAEURE
 70
     0
  3
 
 72
    65
 73
     2
 40
16.
 49
16.
 49
0.
  0
LTYPE
  2
CHROMHALTIGES-KONZENTRAT
 70
     0
  3
 
 72
    65
 73
     2
 40
16.
 49
16.
 49
0.
  0
LTYPE
  2
CYANIDHALTIGES-KONZENTRAT
 70
     0
  3
 
 72
    65
 73
     2
 40
16.
 49
16.
 49
0.
  0
LTYPE
  2
ELEKTROLYT
 70
     0
  3
 
 72
    65
 73
     2
 40
16.
 49
16.
 49
0.
  0
LTYPE
  2
NATRIUMBISULFIT
 70
     0
  3
 
 72
    65
 73
     2
 40
16.
 49
16.
 49
0.
  0
LTYPE
  2
NATRIUMHYPOCHLORIT
 70
     0
  3
 
 72
    65
 73
     2
 40
16.
 49
16.
 49
0.
  0
LTYPE
  2
NATRONLAUGE
 70
     0
  3
 
 72
    65
 73
     2
 40
16.
 49
16.
 49
0.
  0
LTYPE
  2
NITRITHALTIGES-KONZENTRAT
 70
     0
  3
 
 72
    65
 73
     2
 40
16.
 49
16.
 49
0.
  0
LTYPE
  2
PHOSPHORSAEURE
 70
     0
  3
 
 72
    65
 73
     2
 40
16.
 49
16.
 49
0.
  0
LTYPE
  2
SALPETERSAEURE
 70
     0
  3
 
 72
    65
 73
     2
 40
16.
 49
16.
 49
0.
  0
LTYPE
  2
SALZSAEURE
 70
     0
  3
 
 72
    65
 73
     2
 40
16.
 49
16.
 49
0.
  0
LTYPE
  2
SCHWEFELSAEURE
 70
     0
  3
 
 72
    65
 73
     2
 40
16.
 49
16.
 49
0.
  0
LTYPE
  2
BETRIEBSWAERME-RL
 70
     0
  3
 
 72
    65
 73
     2
 40
5.
 49
4.063
 49
-0.938
  0
LTYPE
  2
BETRIEBSWAERME-VL
 70
     0
  3
 
 72
    65
 73
     2
 40
16.
 49
16.
 49
0.
  0
LTYPE
  2
WARMWASSER-VL
 70
     0
  3
 
 72
    65
 73
     2
 40
16.
 49
16.
 49
0.
  0
LTYPE
  2
WARMWASSER-ZIRKULATION
 70
     0
  3
 
 72
    65
 73
     4
 40
13.
 49
9.34
 49
-1.22
 49
1.22
 49
-1.22
  0
LTYPE
  2
ROHWASSER
 70
     0
  3
 
 72
    65
 73
     2
 40
16.
 49
16.
 49
0.
  0
LTYPE
  2
ARGON
 70
     0
  3
 
 72
    65
 73
     2
 40
16.
 49
16.
 49
0.
  0
LTYPE
  2
CORGON
 70
     0
  3
 
 72
    65
 73
     2
 40
16.
 49
16.
 49
0.
  0
LTYPE
  2
KOHLENDIOXID
 70
     0
  3
 
 72
    65
 73
     2
 40
16.
 49
16.
 49
0.
  0
LTYPE
  2
STICKSTOFF
 70
     0
  3
 
 72
    65
 73
     2
 40
16.
 49
16.
 49
0.
  0
LTYPE
  2
AZETYLEN
 70
     0
  3
 
 72
    65
 73
     2
 40
16.
 49
16.
 49
0.
  0
LTYPE
  2
ERDGAS
 70
     0
  3
 
 72
    65
 73
     2
 40
16.
 49
16.
 49
0.
  0
LTYPE
  2
SAUERSTOFF--TECHNISCH-REIN
 70
     0
  3
 
 72
    65
 73
     2
 40
16.
 49
16.
 49
0.
  0
LTYPE
  2
TRAEGERGAS
 70
     0
  3
 
 72
    65
 73
     2
 40
16.
 49
16.
 49
0.
  0
LTYPE
  2
WASSERSTOFF
 70
     0
  3
 
 72
    65
 73
     2
 40
16.
 49
16.
 49
0.
  0
LTYPE
  2
KRAFTSTOFF-GK-A-I-D
 70
     0
  3
 
 72
    65
 73
     2
 40
16.
 49
16.
 49
0.
  0
LTYPE
  2
KRAFTSTOFF-SONDER-D
 70
     0
  3
 
 72
    65
 73
     2
 40
16.
 49
16.
 49
0.
  0
LTYPE
  2
ACHSOEL
 70
     0
  3
 
 72
    65
 73
     2
 40
16.
 49
16.
 49
0.
  0
LTYPE
  2
ALTOEL
 70
     0
  3
 
 72
    65
 73
     2
 40
16.
 49
16.
 49
0.
  0
LTYPE
  2
BOHROEL
 70
     0
  3
 
 72
    65
 73
     2
 40
16.
 49
16.
 49
0.
  0
LTYPE
  2
ERODIEROEL
 70
     0
  3
 
 72
    65
 73
     2
 40
16.
 49
16.
 49
0.
  0
LTYPE
  2
FETT
 70
     0
  3
 
 72
    65
 73
     2
 40
16.
 49
16.
 49
0.
  0
LTYPE
  2
GETRIEBEOEL
 70
     0
  3
 
 72
    65
 73
     2
 40
16.
 49
16.
 49
0.
  0
LTYPE
  2
HAERTEOEL
 70
     0
  3
 
 72
    65
 73
     2
 40
16.
 49
16.
 49
0.
  0
LTYPE
  2
HONOEL
 70
     0
  3
 
 72
    65
 73
     2
 40
16.
 49
16.
 49
0.
  0
LTYPE
  2
HYDRAULIKOEL
 70
     0
  3
 
 72
    65
 73
     2
 40
16.
 49
16.
 49
0.
  0
LTYPE
  2
MOTOROEL
 70
     0
  3
 
 72
    65
 73
     2
 40
16.
 49
16.
 49
0.
  0
LTYPE
  2
NORMALSPUELOEL
 70
     0
  3
 
 72
    65
 73
     2
 40
16.
 49
16.
 49
0.
  0
LTYPE
  2
RAEUMOEL
 70
     0
  3
 
 72
    65
 73
     2
 40
16.
 49
16.
 49
0.
  0
LTYPE
  2
SCHLEIFOEL
 70
     0
  3
 
 72
    65
 73
     2
 40
16.
 49
16.
 49
0.
  0
LTYPE
  2
SCHNEIDOEL
 70
     0
  3
 
 72
    65
 73
     2
 40
16.
 49
16.
 49
0.
  0
LTYPE
  2
SONDERSPUELOEL
 70
     0
  3
 
 72
    65
 73
     2
 40
16.
 49
16.
 49
0.
  0
LTYPE
  2
ZIEHOEL
 70
     0
  3
 
 72
    65
 73
     2
 40
16.
 49
16.
 49
0.
  0
LTYPE
  2
MONTAGEOEL
 70
     0
  3
 
 72
    65
 73
     2
 40
16.
 49
16.
 49
0.
  0
LTYPE
  2
MONTAGE-GLEITOEL
 70
     0
  3
 
 72
    65
 73
     2
 40
16.
 49
16.
 49
0.
  0
LTYPE
  2
SPUELOEL
 70
     0
  3
 
 72
    65
 73
     2
 40
16.
 49
16.
 49
0.
  0
LTYPE
  2
TIEFBOHROEL
 70
     0
  3
 
 72
    65
 73
     2
 40
16.
 49
16.
 49
0.
  0
LTYPE
  2
AMIN
 70
     0
  3
 
 72
    65
 73
     2
 40
16.
 49
16.
 49
0.
  0
LTYPE
  2
HAERTER
 70
     0
  3
 
 72
    65
 73
     2
 40
16.
 49
16.
 49
0.
  0
LTYPE
  2
HARZ
 70
     0
  3
 
 72
    65
 73
     2
 40
16.
 49
16.
 49
0.
  0
LTYPE
  2
LOESEMITTEL
 70
     0
  3
 
 72
    65
 73
     2
 40
16.
 49
16.
 49
0.
  0
LTYPE
  2
LACK
 70
     0
  3
 
 72
    65
 73
     2
 40
16.
 49
16.
 49
0.
  0
LTYPE
  2
WASCHWASSER
 70
     0
  3
 
 72
    65
 73
     2
 40
16.
 49
16.
 49
0.
  0
LTYPE
  2
GLEITSCHLEIFWASSER
 70
     0
  3
 
 72
    65
 73
     2
 40
16.
 49
16.
 49
0.
  0
LTYPE
  2
VERDUENNUNG
 70
     0
  3
 
 72
    65
 73
     2
 40
16.
 49
16.
 49
0.
  0
LTYPE
  2
KUEHLDECKEN-VORLAUF
 70
     0
  3
 
 72
    65
 73
     2
 40
16.
 49
16.
 49
0.
  0
LTYPE
  2
KUEHLDECKEN-RUECKLAUF
 70
     0
  3
 
 72
    65
 73
     2
 40
5.
 49
4.063
 49
-0.938
  0
LTYPE
  2
KONDENSAT
 70
     0
  3
 
 72
    65
 73
     2
 40
16.
 49
16.
 49
0.
  0
LTYPE
  2
KONDENSAT-REINDAMPF
 70
     0
  3
 
 72
    65
 73
     2
 40
16.
 49
16.
 49
0.
  0
LTYPE
  2
KONDENSAT-HOCHDRUCK
 70
     0
  3
 
 72
    65
 73
     2
 40
16.
 49
16.
 49
0.
  0
LTYPE
  2
DAMPF
 70
     0
  3
 
 72
    65
 73
     2
 40
16.
 49
16.
 49
0.
  0
LTYPE
  2
REINDAMPF
 70
     0
  3
 
 72
    65
 73
     2
 40
16.
 49
16.
 49
0.
  0
LTYPE
  2
DAMPF-HOCHDRUCK
 70
     0
  3
 
 72
    65
 73
     2
 40
16.
 49
16.
 49
0.
  0
LTYPE
  2
KLIMA-ZENTRALE
 70
     0
  3
 
 72
    65
 73
     2
 40
16.
 49
16.
 49
0.
  0
LTYPE
  2
KLIMA-AUSSENLUFT
 70
     0
  3
 
 72
    65
 73
     4
 40
13.
 49
9.34
 49
-1.22
 49
1.22
 49
-1.22
  0
LTYPE
  2
KLIMA-ZULUFT-I
 70
     0
  3
 
 72
    65
 73
     2
 40
16.
 49
16.
 49
0.
  0
LTYPE
  2
KLIMA-ZULUFT-II
 70
     0
  3
 
 72
    65
 73
     2
 40
16.
 49
16.
 49
0.
  0
LTYPE
  2
KLIMA-ZULUFT-III
 70
     0
  3
 
 72
    65
 73
     2
 40
16.
 49
16.
 49
0.
  0
LTYPE
  2
KLIMA-ZULUFT-IV
 70
     0
  3
 
 72
    65
 73
     2
 40
16.
 49
16.
 49
0.
  0
LTYPE
  2
KLIMA-UMLUFT
 70
     0
  3
 
 72
    65
 73
     2
 40
5.
 49
4.063
 49
-0.938
  0
LTYPE
  2
KLIMA-MISCHLUFT
 70
     0
  3
 
 72
    65
 73
     6
 40
11.
 49
3.78
 49
-1.03
 49
3.78
 49
-1.03
 49
0.34
 49
-1.03
  0
LTYPE
  2
KLIMA-ABLUFT
 70
     0
  3
 
 72
    65
 73
     2
 40
5.
 49
4.063
 49
-0.938
  0
LTYPE
  2
KLIMA-FORTLUFT
 70
     0
  3
 
 72
    65
 73
     2
 40
5.
 49
4.063
 49
-0.938
  0
LTYPE
  2
ENTRAUCHUNG
 70
     0
  3
 
 72
    65
 73
     2
 40
5.
 49
4.063
 49
-0.938
  0
LTYPE
  2
ELEKTRO-ZENTRALE
 70
     0
  3
 
 72
    65
 73
     2
 40
16.
 49
16.
 49
0.
  0
LTYPE
  2
STROMSCHIENEN
 70
     0
  3
 
 72
    65
 73
     2
 40
16.
 49
16.
 49
0.
  0
LTYPE
  2
ELEKTRO-LEITUNGSFUEHRUNG
 70
     0
  3
 
 72
    65
 73
     2
 40
16.
 49
16.
 49
0.
  0
LTYPE
  2
ELEKTRO-KABELTRAEGER
 70
     0
  3
 
 72
    65
 73
     2
 40
16.
 49
16.
 49
0.
  0
LTYPE
  2
INNENWAND
 70
     0
  3
 
 72
    65
 73
     2
 40
16.
 49
16.
 49
0.
  0
LTYPE
  2
AUSSENWAND
 70
     0
  3
 
 72
    65
 73
     2
 40
16.
 49
16.
 49
0.
  0
LTYPE
  2
ERDBERUEHREND
 70
     0
  3
 
 72
    65
 73
     2
 40
16.
 49
16.
 49
0.
  0
LTYPE
  2
REINWASSER
 70
     0
  3
 
 72
    65
 73
     2
 40
16.
 49
16.
 49
0.
  0
LTYPE
  2
MESSWASSER
 70
     0
  3
 
 72
    65
 73
     2
 40
16.
 49
16.
 49
0.
  0
LTYPE
  2
SCHWALLWASSER
 70
     0
  3
 
 72
    65
 73
     2
 40
16.
 49
16.
 49
0.
  0
LTYPE
  2
SCHLAMMWASSER
 70
     0
  3
 
 72
    65
 73
     2
 40
16.
 49
16.
 49
0.
  0
LTYPE
  2
ERSTFILTRAT
 70
     0
  3
 
 72
    65
 73
     2
 40
16.
 49
16.
 49
0.
  0
LTYPE
  2
FILTRAT
 70
     0
  3
 
 72
    65
 73
     2
 40
16.
 49
16.
 49
0.
  0
LTYPE
  2
SOLE-FILTRAT
 70
     0
  3
 
 72
    65
 73
     2
 40
16.
 49
16.
 49
0.
  0
LTYPE
  2
SOLE-REINWASSER
 70
     0
  3
 
 72
    65
 73
     2
 40
16.
 49
16.
 49
0.
  0
LTYPE
  2
SOLE-ROHWASSER
 70
     0
  3
 
 72
    65
 73
     2
 40
16.
 49
16.
 49
0.
  0
LTYPE
  2
SPUELWASSER
 70
     0
  3
 
 72
    65
 73
     2
 40
16.
 49
16.
 49
0.
  0
LTYPE
  2
SPUELLUFT
 70
     0
  3
 
 72
    65
 73
     2
 40
16.
 49
16.
 49
0.
  0
LTYPE
  2
CHLORLOESUNG
 70
     0
  3
 
 72
    65
 73
     2
 40
16.
 49
16.
 49
0.
  0
LTYPE
  2
PH-LOESUNG
 70
     0
  3
 
 72
    65
 73
     2
 40
16.
 49
16.
 49
0.
  0
LTYPE
  2
FLOCKUNGSMITTEL
 70
     0
  3
 
 72
    65
 73
     2
 40
16.
 49
16.
 49
0.
  0
LTYPE
  2
SEEWASSER--KALT
 70
     0
  3
 
 72
    65
 73
     2
 40
16.
 49
16.
 49
0.
  0
LTYPE
  2
SEEWASSER--WARM
 70
     0
  3
 
 72
    65
 73
     2
 40
5.
 49
4.063
 49
-0.938
  0
LTYPE
  2
SEEWASSER--ZIRKULATION
 70
     0
  3
 
 72
    65
 73
     4
 40
13.
 49
9.34
 49
-1.22
 49
1.22
 49
-1.22
  0
ENDTAB
  0
TABLE
  2
LAYER
 70
     1
  0
LAYER
  2
0
 62
     7
  6
AUSGEZOGEN
 70
    64
  0
ENDTAB
  0
TABLE
  2
STYLE
 70
    23
  0
STYLE
  2
STANDARD
 70
     0
 40
     0
 41
       1.000000
 50
       0.000000
 71
     0
 42
       3.500000
  3
isocp
  4

  0
STYLE
  2
DIN-6776
 70
     0
 40
     0
 41
       1.000000
 50
       0.000000
 71
     0
 42
       3.500000
  3
isocp
  4

  0
STYLE
  2
ROMAN
 70
     0
 40
     0
 41
       1.000000
 50
       0.000000
 71
     0
 42
       3.500000
  3
romans.shx
  4

  0
STYLE
  2
SCRIPT
 70
     0
 40
     0
 41
       1.000000
 50
       0.000000
 71
     0
 42
       3.500000
  3
scripts.shx
  4

  0
STYLE
  2
GRIECHISCH
 70
     0
 40
     0
 41
       1.000000
 50
       0.000000
 71
     0
 42
       3.500000
  3
greeks.shx
  4

  0
STYLE
  2
KYRILLISCH
 70
     0
 40
     0
 41
       1.000000
 50
       0.000000
 71
     0
 42
       3.500000
  3
cyrillic.shx
  4

  0
STYLE
  2
MATH--FORMELZEICHEN
 70
     0
 40
     0
 41
       1.000000
 50
       0.000000
 71
     0
 42
       3.500000
  3
symath.shx
  4

  0
STYLE
  2
DOPPELLINIE
 70
     0
 40
     0
 41
       1.000000
 50
       0.000000
 71
     0
 42
       3.500000
  3
swissko.ttf
  4

  0
STYLE
  2
SERIFENSCHRIFT
 70
     0
 40
     0
 41
       1.000000
 50
       0.000000
 71
     0
 42
       3.500000
  3
romanc__.ttf
  4

  0
STYLE
  2
ARIAL
 70
     0
 40
     0
 41
       1.000000
 50
       0.000000
 71
     0
 42
       3.500000
  3
arial.ttf
  4

  0
STYLE
  2
ARIAL-FETT
 70
     0
 40
     0
 41
       1.000000
 50
       0.000000
 71
     0
 42
       3.500000
  3
arialbd.ttf
  4

  0
STYLE
  2
TIMES-NEW-ROMAN
 70
     0
 40
     0
 41
       1.000000
 50
       0.000000
 71
     0
 42
       3.500000
  3
times.ttf
  4

  0
STYLE
  2
TIMES-NEW-ROMAN-FETT
 70
     0
 40
     0
 41
       1.000000
 50
       0.000000
 71
     0
 42
       3.500000
  3
timesbd.ttf
  4

  0
STYLE
  2
DIN-6776-OSTEUROPA
 70
     0
 40
     0
 41
       1.000000
 50
       0.000000
 71
     0
 42
       3.500000
  3
txt
  4

  0
STYLE
  2
DIN-6776-KYRILLISCH
 70
     0
 40
     0
 41
       1.000000
 50
       0.000000
 71
     0
 42
       3.500000
  3
txt
  4

  0
STYLE
  2
ARIAL-OSTEUROPA
 70
     0
 40
     0
 41
       1.000000
 50
       0.000000
 71
     0
 42
       3.500000
  3
arial.ttf
  4

  0
STYLE
  2
ARIAL-KYRILLISCH
 70
     0
 40
     0
 41
       1.000000
 50
       0.000000
 71
     0
 42
       3.500000
  3
arial.ttf
  4

  0
STYLE
  2
ARIAL-FETT-OSTEUROPA
 70
     0
 40
     0
 41
       1.000000
 50
       0.000000
 71
     0
 42
       3.500000
  3
arialbd.ttf
  4

  0
STYLE
  2
ARIAL-FETT-KYRILLISCH
 70
     0
 40
     0
 41
       1.000000
 50
       0.000000
 71
     0
 42
       3.500000
  3
arialbd.ttf
  4

  0
STYLE
  2
TIMES-N-R-OSTEUROPA
 70
     0
 40
     0
 41
       1.000000
 50
       0.000000
 71
     0
 42
       3.500000
  3
times.ttf
  4

  0
STYLE
  2
TIMES-N-R-KYRILLISCH
 70
     0
 40
     0
 41
       1.000000
 50
       0.000000
 71
     0
 42
       3.500000
  3
times.ttf
  4

  0
STYLE
  2
TIMES-N-R-FETT-OSTEUROPA
 70
     0
 40
     0
 41
       1.000000
 50
       0.000000
 71
     0
 42
       3.500000
  3
timesbd.ttf
  4

  0
STYLE
  2
TIMES-N-R-FETT-KYRILLISCH
 70
     0
 40
     0
 41
       1.000000
 50
       0.000000
 71
     0
 42
       3.500000
  3
timesbd.ttf
  4

  0
ENDTAB
  0
TABLE
  2
VIEW
 70
     0
  0
ENDTAB
  0
TABLE
  2
VPORT
 70
     2
  0
VPORT
  2
*ACTIVE
 70
     0
 10
       0.000000
 20
       0.000000
 11
       1.000000
 21
       1.000000
 12
    1712.814087
 22
    1082.878662
 13
       0.000000
 23
       0.000000
 14
       1.000000
 24
       1.000000
 15
       0.000000
 25
       0.000000
 16
       0.000000
 26
       0.000000
 36
       1.000000
 17
       0.000000
 27
       0.000000
 37
       0.000000
 40
    2165.757324
 41
       1.581723
 42
      50.000000
 43
       0.000000
 44
       0.000000
 50
       0.000000
 51
       0.000000
 71
     0
 72
   100
 73
     1
 74
     1
 75
     0
 76
     0
 77
     0
 78
     0
  0
ENDTAB
  0
TABLE
  2
DIMSTYLE
 70
     1
  0
DIMSTYLE
  2
STDBEM
 70
     0
  3

  4

  5

  6

  7

 40
       1.000000
 41
      27.071966
 42
       0.773485
 43
      54.143932
 44
      13.922726
 45
       0.000000
 46
       0.000000
 47
       0.000000
 48
       0.000000
140
      27.071966
141
      11.602271
142
       0.000000
143
      25.400000
144
       1.000000
145
       0.000000
146
       1.000000
147
       0.696136
 71
     0
 72
     0
 73
     0
 74
     0
 75
     0
 76
     0
 77
     1
 78
     0
170
     0
171
     2
172
     0
173
     0
174
     0
175
     0
176
     0
177
     0
178
     0
  0
ENDTAB
  0
ENDSEC
  0
SECTION
  2
BLOCKS
  0
BLOCK
  8
0
  2
-
 70
     0
 10
       0.000000
 20
       0.000000
 30
       0.000000
  0
ENDBLK
  0
BLOCK
  8
0
  2
DXF-454-00
 70
     0
 10
       0.000000
 20
       0.000000
 30
       0.000000
  0
LINE
  8
0
  6
VERDECKTE_KANTE
 62
     8
 10
      36.584648
 20
    1816.878540
 11
      36.584648
 21
    1836.878540
  0
LINE
  8
0
  6
VERDECKTE_KANTE
 62
     8
 10
      48.584648
 20
    1813.878540
 11
      48.584648
 21
    1810.878540
  0
LINE
  8
0
  6
VERDECKTE_KANTE
 62
     8
 10
     118.979057
 20
    1839.530396
 11
      39.584648
 21
    1842.878540
  0
LINE
  8
0
  6
VERDECKTE_KANTE
 62
     8
 10
     118.852654
 20
    1836.533081
 11
      39.532280
 21
    1839.878052
  0
LINE
  8
0
  6
VERDECKTE_KANTE
 62
     8
 10
    2018.584473
 20
    1810.878540
 11
    2018.584473
 21
    1813.878540
  0
LINE
  8
0
  6
VERDECKTE_KANTE
 62
     8
 10
    2030.584473
 20
    1836.878540
 11
    2030.584473
 21
    1816.878540
  0
LINE
  8
0
  6
VERDECKTE_KANTE
 62
     8
 10
    2027.636719
 20
    1839.878052
 11
    1948.316528
 21
    1836.533081
  0
LINE
  8
0
  6
VERDECKTE_KANTE
 62
     8
 10
    2027.584473
 20
    1842.878540
 11
    1948.190063
 21
    1839.530396
  0
LINE
  8
0
  6
VERDECKTE_KANTE
 62
     8
 10
      48.584648
 20
    1813.878540
 11
      39.584648
 21
    1813.878540
  0
LINE
  8
0
  6
VERDECKTE_KANTE
 62
     8
 10
    2018.584473
 20
    1813.878540
 11
    2027.584473
 21
    1813.878540
  0
ARC
  8
0
  6
VERDECKTE_KANTE
 62
     8
 10
      39.584648
 20
    1816.878540
 40
       3.000000
 50
     180.000000
 51
     270.000000
  0
ARC
  8
0
  6
VERDECKTE_KANTE
 62
     8
 10
     118.136406
 20
    1819.548218
 40
      16.999998
 50
      12.190768
 51
      87.585281
  0
ARC
  8
0
  6
VERDECKTE_KANTE
 62
     8
 10
      39.584648
 20
    1836.878540
 40
       3.000000
 50
      91.000221
 51
     180.000000
  0
ARC
  8
0
  6
VERDECKTE_KANTE
 62
     8
 10
    2027.584473
 20
    1816.878540
 40
       3.000000
 50
     270.000000
 51
       0.000000
  0
ARC
  8
0
  6
VERDECKTE_KANTE
 62
     8
 10
    1949.032837
 20
    1819.548218
 40
      16.999998
 50
      92.414925
 51
     167.808456
  0
ARC
  8
0
  6
VERDECKTE_KANTE
 62
     8
 10
    2027.584473
 20
    1836.878540
 40
       3.000000
 50
       0.000000
 51
      89.002106
  0
ARC
  8
0
  6
VERDECKTE_KANTE
 62
     8
 10
     118.136406
 20
    1819.548218
 40
      19.999998
 50
      12.190875
 51
      87.585258
  0
ARC
  8
0
  6
VERDECKTE_KANTE
 62
     8
 10
    1949.032837
 20
    1819.548218
 40
      19.999998
 50
      92.415085
 51
     167.809158
  0
ARC
  8
0
  6
HILFSLINIE
 62
     8
 10
    2010.584595
 20
    1299.878540
 40
      16.999998
 50
       0.000000
 51
      90.000000
  0
ARC
  8
0
  6
HILFSLINIE
 62
     8
 10
    1831.997192
 20
    1159.483521
 40
     117.491241
 50
      72.990562
 51
      90.076904
  0
ARC
  8
0
  6
HILFSLINIE
 62
     8
 10
    1781.405640
 20
    1108.867676
 40
       9.600224
 50
     359.421539
 51
      90.992317
  0
ARC
  8
0
  6
HILFSLINIE
 62
     8
 10
    1835.680786
 20
    1163.999878
 40
     112.116493
 50
      22.022018
 51
      74.115578
  0
ARC
  8
0
  6
HILFSLINIE
 62
     8
 10
    1830.690063
 20
    1161.981201
 40
     117.499992
 50
       0.000000
 51
      22.022045
  0
ARC
  8
0
  6
HILFSLINIE
 62
     8
 10
    1831.997192
 20
     486.273712
 40
     117.491241
 50
     269.923096
 51
     287.009430
  0
ARC
  8
0
  6
HILFSLINIE
 62
     8
 10
    1835.680786
 20
     481.757355
 40
     112.116493
 50
     285.884430
 51
     337.977966
  0
ARC
  8
0
  6
HILFSLINIE
 62
     8
 10
    1830.690063
 20
     483.775909
 40
     117.499992
 50
     337.977997
 51
       0.000000
  0
ARC
  8
0
  6
HILFSLINIE
 62
     8
 10
    2010.584595
 20
     345.878693
 40
      16.999998
 50
     270.000000
 51
       0.000000
  0
ARC
  8
0
  6
HILFSLINIE
 62
     8
 10
      56.584648
 20
    1299.878540
 40
      16.999998
 50
      90.000000
 51
     180.000000
  0
ARC
  8
0
  6
HILFSLINIE
 62
     8
 10
     235.172058
 20
    1159.483521
 40
     117.491241
 50
      89.923088
 51
     107.009377
  0
ARC
  8
0
  6
HILFSLINIE
 62
     8
 10
     285.763611
 20
    1108.867676
 40
       9.600224
 50
      89.006950
 51
     180.578461
  0
ARC
  8
0
  6
HILFSLINIE
 62
     8
 10
     231.488464
 20
    1163.999878
 40
     112.116493
 50
     105.884354
 51
     157.977966
  0
ARC
  8
0
  6
HILFSLINIE
 62
     8
 10
     236.479187
 20
    1161.981201
 40
     117.499992
 50
     157.977921
 51
     180.000000
  0
ARC
  8
0
  6
HILFSLINIE
 62
     8
 10
     235.172058
 20
     486.273712
 40
     117.491241
 50
     252.990616
 51
     270.076904
  0
ARC
  8
0
  6
HILFSLINIE
 62
     8
 10
     236.479187
 20
     483.775909
 40
     117.499992
 50
     180.000000
 51
     202.022003
  0
ARC
  8
0
  6
HILFSLINIE
 62
     8
 10
      56.584648
 20
     345.878693
 40
      16.999998
 50
     180.000000
 51
     270.000000
  0
ARC
  8
0
  6
HILFSLINIE
 62
     8
 10
    1781.405640
 20
     536.889709
 40
       9.600224
 50
     269.007690
 51
       0.578461
  0
ARC
  8
0
  6
HILFSLINIE
 62
     8
 10
     285.763611
 20
     536.889709
 40
       9.600224
 50
     179.421524
 51
     270.993042
  0
ARC
  8
0
  6
HILFSLINIE
 62
     8
 10
     231.488464
 20
     481.757355
 40
     112.116493
 50
     202.022034
 51
     254.115631
  0
LINE
  8
0
  6
HILFSLINIE
 62
     8
 10
      56.584648
 20
    1316.878540
 11
    2010.584595
 21
    1316.878540
  0
LINE
  8
0
  6
HILFSLINIE
 62
     8
 10
    2027.584473
 20
     345.878693
 11
    2027.584473
 21
    1299.878540
  0
LINE
  8
0
  6
HILFSLINIE
 62
     8
 10
    1948.190063
 20
     483.775909
 11
    1948.190063
 21
    1161.981201
  0
LINE
  8
0
  6
HILFSLINIE
 62
     8
 10
      56.584648
 20
     328.878693
 11
    2010.584595
 21
     328.878693
  0
LINE
  8
0
  6
HILFSLINIE
 62
     8
 10
      39.584648
 20
     345.878693
 11
      39.584648
 21
    1299.878540
  0
LINE
  8
0
  6
HILFSLINIE
 62
     8
 10
     118.979179
 20
     483.775909
 11
     118.979179
 21
    1161.981201
  0
LINE
  8
0
  6
HILFSLINIE
 62
     8
 10
    2205.042969
 20
     797.706787
 11
    3392.043457
 21
     797.706787
  0
POLYLINE
  8
0
  6
HILFSLINIE
 62
     8
 66
     1
 10
       0.000000
 20
       0.000000
 30
       0.000000
  0
VERTEX
  8
0
  6
HILFSLINIE
 62
     8
 10
    1831.839478
 20
    1276.974609
 30
       0.000000
  0
VERTEX
  8
0
  6
HILFSLINIE
 62
     8
 10
    1460.001221
 20
    1276.974487
 30
       0.000000
  0
VERTEX
  8
0
  6
HILFSLINIE
 62
     8
 10
    1033.584595
 20
    1276.974487
 30
       0.000000
  0
SEQEND
  8
0
  6
HILFSLINIE
 62
     8
  0
POLYLINE
  8
0
  6
HILFSLINIE
 62
     8
 66
     1
 10
       0.000000
 20
       0.000000
 30
       0.000000
  0
VERTEX
  8
0
  6
HILFSLINIE
 62
     8
 10
     235.329773
 20
    1276.974609
 30
       0.000000
  0
VERTEX
  8
0
  6
HILFSLINIE
 62
     8
 10
     607.167969
 20
    1276.974487
 30
       0.000000
  0
VERTEX
  8
0
  6
HILFSLINIE
 62
     8
 10
    1033.584595
 20
    1276.974487
 30
       0.000000
  0
SEQEND
  8
0
  6
HILFSLINIE
 62
     8
  0
POLYLINE
  8
0
  6
HILFSLINIE
 62
     8
 66
     1
 10
       0.000000
 20
       0.000000
 30
       0.000000
  0
VERTEX
  8
0
  6
HILFSLINIE
 62
     8
 10
     235.329773
 20
     368.782623
 30
       0.000000
  0
VERTEX
  8
0
  6
HILFSLINIE
 62
     8
 10
     607.167969
 20
     368.782745
 30
       0.000000
  0
VERTEX
  8
0
  6
HILFSLINIE
 62
     8
 10
    1033.584595
 20
     368.782745
 30
       0.000000
  0
SEQEND
  8
0
  6
HILFSLINIE
 62
     8
  0
POLYLINE
  8
0
  6
HILFSLINIE
 62
     8
 66
     1
 10
       0.000000
 20
       0.000000
 30
       0.000000
  0
VERTEX
  8
0
  6
HILFSLINIE
 62
     8
 10
    1831.839478
 20
     368.782623
 30
       0.000000
  0
VERTEX
  8
0
  6
HILFSLINIE
 62
     8
 10
    1460.001221
 20
     368.782745
 30
       0.000000
  0
VERTEX
  8
0
  6
HILFSLINIE
 62
     8
 10
    1033.584595
 20
     368.782745
 30
       0.000000
  0
SEQEND
  8
0
  6
HILFSLINIE
 62
     8
  0
POLYLINE
  8
0
  6
HILFSLINIE
 62
     8
 66
     1
 10
       0.000000
 20
       0.000000
 30
       0.000000
  0
VERTEX
  8
0
  6
HILFSLINIE
 62
     8
 10
     285.929993
 20
    1118.466431
 30
       0.000000
  0
VERTEX
  8
0
  6
HILFSLINIE
 62
     8
 10
     472.791290
 20
    1117.269287
 30
       0.000000
  0
VERTEX
  8
0
  6
HILFSLINIE
 62
     8
 10
     659.668213
 20
    1116.360840
 30
       0.000000
  0
VERTEX
  8
0
  6
HILFSLINIE
 62
     8
 10
     753.132080
 20
    1116.098633
 30
       0.000000
  0
VERTEX
  8
0
  6
HILFSLINIE
 62
     8
 10
     846.608276
 20
    1115.979736
 30
       0.000000
  0
VERTEX
  8
0
  6
HILFSLINIE
 62
     8
 10
     940.093628
 20
    1115.948975
 30
       0.000000
  0
VERTEX
  8
0
  6
HILFSLINIE
 62
     8
 10
    1033.584595
 20
    1115.950928
 30
       0.000000
  0
VERTEX
  8
0
  6
HILFSLINIE
 62
     8
 10
    1106.875000
 20
    1115.936890
 30
       0.000000
  0
VERTEX
  8
0
  6
HILFSLINIE
 62
     8
 10
    1219.287842
 20
    1115.963379
 30
       0.000000
  0
VERTEX
  8
0
  6
HILFSLINIE
 62
     8
 10
    1331.686768
 20
    1116.139282
 30
       0.000000
  0
VERTEX
  8
0
  6
HILFSLINIE
 62
     8
 10
    1444.071167
 20
    1116.508057
 30
       0.000000
  0
VERTEX
  8
0
  6
HILFSLINIE
 62
     8
 10
    1612.661255
 20
    1117.378052
 30
       0.000000
  0
VERTEX
  8
0
  6
HILFSLINIE
 62
     8
 10
    1781.239380
 20
    1118.466431
 30
       0.000000
  0
SEQEND
  8
0
  6
HILFSLINIE
 62
     8
  0
POLYLINE
  8
0
  6
HILFSLINIE
 62
     8
 66
     1
 10
       0.000000
 20
       0.000000
 30
       0.000000
  0
VERTEX
  8
0
  6
HILFSLINIE
 62
     8
 10
    1791.005493
 20
     536.986633
 30
       0.000000
  0
VERTEX
  8
0
  6
HILFSLINIE
 62
     8
 10
    1790.811646
 20
     679.927002
 30
       0.000000
  0
VERTEX
  8
0
  6
HILFSLINIE
 62
     8
 10
    1790.748169
 20
     822.878662
 30
       0.000000
  0
VERTEX
  8
0
  6
HILFSLINIE
 62
     8
 10
    1790.811646
 20
     965.824707
 30
       0.000000
  0
VERTEX
  8
0
  6
HILFSLINIE
 62
     8
 10
    1791.005493
 20
    1108.770752
 30
       0.000000
  0
SEQEND
  8
0
  6
HILFSLINIE
 62
     8
  0
POLYLINE
  8
0
  6
HILFSLINIE
 62
     8
 66
     1
 10
       0.000000
 20
       0.000000
 30
       0.000000
  0
VERTEX
  8
0
  6
HILFSLINIE
 62
     8
 10
     276.163879
 20
     536.986633
 30
       0.000000
  0
VERTEX
  8
0
  6
HILFSLINIE
 62
     8
 10
     276.357727
 20
     679.927002
 30
       0.000000
  0
VERTEX
  8
0
  6
HILFSLINIE
 62
     8
 10
     276.421082
 20
     822.878662
 30
       0.000000
  0
VERTEX
  8
0
  6
HILFSLINIE
 62
     8
 10
     276.357727
 20
     965.824707
 30
       0.000000
  0
VERTEX
  8
0
  6
HILFSLINIE
 62
     8
 10
     276.163879
 20
    1108.770752
 30
       0.000000
  0
SEQEND
  8
0
  6
HILFSLINIE
 62
     8
  0
POLYLINE
  8
0
  6
HILFSLINIE
 62
     8
 66
     1
 10
       0.000000
 20
       0.000000
 30
       0.000000
  0
VERTEX
  8
0
  6
HILFSLINIE
 62
     8
 10
    1033.584595
 20
    1824.243774
 30
       0.000000
  0
VERTEX
  8
0
  6
HILFSLINIE
 62
     8
 10
     993.584534
 20
    1824.243774
 30
       0.000000
  0
VERTEX
  8
0
  6
HILFSLINIE
 62
     8
 10
     833.584595
 20
    1824.243774
 30
       0.000000
  0
VERTEX
  8
0
  6
HILFSLINIE
 62
     8
 10
     534.457153
 20
    1824.243774
 30
       0.000000
  0
VERTEX
  8
0
  6
HILFSLINIE
 62
     8
 10
     235.329773
 20
    1824.243774
 30
       0.000000
  0
SEQEND
  8
0
  6
HILFSLINIE
 62
     8
  0
POLYLINE
  8
0
  6
HILFSLINIE
 62
     8
 66
     1
 10
       0.000000
 20
       0.000000
 30
       0.000000
  0
VERTEX
  8
0
  6
HILFSLINIE
 62
     8
 10
     285.929993
 20
     527.290833
 30
       0.000000
  0
VERTEX
  8
0
  6
HILFSLINIE
 62
     8
 10
     472.791290
 20
     528.487976
 30
       0.000000
  0
VERTEX
  8
0
  6
HILFSLINIE
 62
     8
 10
     659.668213
 20
     529.396423
 30
       0.000000
  0
VERTEX
  8
0
  6
HILFSLINIE
 62
     8
 10
     753.132080
 20
     529.658630
 30
       0.000000
  0
VERTEX
  8
0
  6
HILFSLINIE
 62
     8
 10
     846.608276
 20
     529.777527
 30
       0.000000
  0
VERTEX
  8
0
  6
HILFSLINIE
 62
     8
 10
     940.093628
 20
     529.808411
 30
       0.000000
  0
VERTEX
  8
0
  6
HILFSLINIE
 62
     8
 10
    1033.584595
 20
     529.806458
 30
       0.000000
  0
VERTEX
  8
0
  6
HILFSLINIE
 62
     8
 10
    1106.875000
 20
     529.820496
 30
       0.000000
  0
VERTEX
  8
0
  6
HILFSLINIE
 62
     8
 10
    1219.287842
 20
     529.794006
 30
       0.000000
  0
VERTEX
  8
0
  6
HILFSLINIE
 62
     8
 10
    1331.686768
 20
     529.618103
 30
       0.000000
  0
VERTEX
  8
0
  6
HILFSLINIE
 62
     8
 10
    1444.071167
 20
     529.249329
 30
       0.000000
  0
VERTEX
  8
0
  6
HILFSLINIE
 62
     8
 10
    1612.661255
 20
     528.379333
 30
       0.000000
  0
VERTEX
  8
0
  6
HILFSLINIE
 62
     8
 10
    1781.239380
 20
     527.290833
 30
       0.000000
  0
SEQEND
  8
0
  6
HILFSLINIE
 62
     8
  0
POLYLINE
  8
0
  6
HILFSLINIE
 62
     8
 66
     1
 10
       0.000000
 20
       0.000000
 30
       0.000000
  0
VERTEX
  8
0
  6
HILFSLINIE
 62
     8
 10
    1778.318481
 20
    1591.697754
 30
       0.000000
  0
VERTEX
  8
0
  6
HILFSLINIE
 62
     8
 10
    1592.187134
 20
    1585.669189
 30
       0.000000
  0
VERTEX
  8
0
  6
HILFSLINIE
 62
     8
 10
    1406.041260
 20
    1580.104858
 30
       0.000000
  0
VERTEX
  8
0
  6
HILFSLINIE
 62
     8
 10
    1312.943237
 20
    1577.627197
 30
       0.000000
  0
VERTEX
  8
0
  6
HILFSLINIE
 62
     8
 10
    1219.832275
 20
    1575.564819
 30
       0.000000
  0
VERTEX
  8
0
  6
HILFSLINIE
 62
     8
 10
    1126.711670
 20
    1574.153931
 30
       0.000000
  0
VERTEX
  8
0
  6
HILFSLINIE
 62
     8
 10
    1033.584595
 20
    1573.631226
 30
       0.000000
  0
VERTEX
  8
0
  6
HILFSLINIE
 62
     8
 10
     940.479980
 20
    1574.153809
 30
       0.000000
  0
VERTEX
  8
0
  6
HILFSLINIE
 62
     8
 10
     847.381714
 20
    1575.563965
 30
       0.000000
  0
VERTEX
  8
0
  6
HILFSLINIE
 62
     8
 10
     754.293213
 20
    1577.625610
 30
       0.000000
  0
VERTEX
  8
0
  6
HILFSLINIE
 62
     8
 10
     661.217773
 20
    1580.102295
 30
       0.000000
  0
VERTEX
  8
0
  6
HILFSLINIE
 62
     8
 10
     475.026764
 20
    1585.667725
 30
       0.000000
  0
VERTEX
  8
0
  6
HILFSLINIE
 62
     8
 10
     288.850891
 20
    1591.697754
 30
       0.000000
  0
SEQEND
  8
0
  6
HILFSLINIE
 62
     8
  0
POLYLINE
  8
0
  6
HILFSLINIE
 62
     8
 66
     1
 10
       0.000000
 20
       0.000000
 30
       0.000000
  0
VERTEX
  8
0
  6
HILFSLINIE
 62
     8
 10
    1866.366821
 20
    1839.594360
 30
       0.000000
  0
VERTEX
  8
0
  6
HILFSLINIE
 62
     8
 10
    1858.024292
 20
    1839.756226
 30
       0.000000
  0
VERTEX
  8
0
  6
HILFSLINIE
 62
     8
 10
    1849.491333
 20
    1839.873169
 30
       0.000000
  0
VERTEX
  8
0
  6
HILFSLINIE
 62
     8
 10
    1840.714722
 20
    1839.944946
 30
       0.000000
  0
VERTEX
  8
0
  6
HILFSLINIE
 62
     8
 10
    1831.839478
 20
    1839.968872
 30
       0.000000
  0
SEQEND
  8
0
  6
HILFSLINIE
 62
     8
  0
POLYLINE
  8
0
  6
HILFSLINIE
 62
     8
 66
     1
 10
       0.000000
 20
       0.000000
 30
       0.000000
  0
VERTEX
  8
0
  6
HILFSLINIE
 62
     8
 10
     200.802551
 20
    1839.594360
 30
       0.000000
  0
VERTEX
  8
0
  6
HILFSLINIE
 62
     8
 10
     209.144958
 20
    1839.756226
 30
       0.000000
  0
VERTEX
  8
0
  6
HILFSLINIE
 62
     8
 10
     217.677856
 20
    1839.873169
 30
       0.000000
  0
VERTEX
  8
0
  6
HILFSLINIE
 62
     8
 10
     226.454529
 20
    1839.944946
 30
       0.000000
  0
VERTEX
  8
0
  6
HILFSLINIE
 62
     8
 10
     235.329773
 20
    1839.968872
 30
       0.000000
  0
SEQEND
  8
0
  6
HILFSLINIE
 62
     8
  0
POLYLINE
  8
0
  6
HILFSLINIE
 62
     8
 66
     1
 10
       0.000000
 20
       0.000000
 30
       0.000000
  0
VERTEX
  8
0
  6
HILFSLINIE
 62
     8
 10
    1831.839478
 20
    1839.968872
 30
       0.000000
  0
VERTEX
  8
0
  6
HILFSLINIE
 62
     8
 10
    1645.920288
 20
    1839.968872
 30
       0.000000
  0
VERTEX
  8
0
  6
HILFSLINIE
 62
     8
 10
    1460.001221
 20
    1839.968872
 30
       0.000000
  0
VERTEX
  8
0
  6
HILFSLINIE
 62
     8
 10
    1033.584595
 20
    1839.968872
 30
       0.000000
  0
SEQEND
  8
0
  6
HILFSLINIE
 62
     8
  0
POLYLINE
  8
0
  6
HILFSLINIE
 62
     8
 66
     1
 10
       0.000000
 20
       0.000000
 30
       0.000000
  0
VERTEX
  8
0
  6
HILFSLINIE
 62
     8
 10
     235.329773
 20
    1839.968872
 30
       0.000000
  0
VERTEX
  8
0
  6
HILFSLINIE
 62
     8
 10
     607.167969
 20
    1839.968872
 30
       0.000000
  0
VERTEX
  8
0
  6
HILFSLINIE
 62
     8
 10
    1033.584595
 20
    1839.968872
 30
       0.000000
  0
SEQEND
  8
0
  6
HILFSLINIE
 62
     8
  0
POLYLINE
  8
0
  6
HILFSLINIE
 62
     8
 66
     1
 10
       0.000000
 20
       0.000000
 30
       0.000000
  0
VERTEX
  8
0
  6
HILFSLINIE
 62
     8
 10
    1033.584595
 20
    1824.243774
 30
       0.000000
  0
VERTEX
  8
0
  6
HILFSLINIE
 62
     8
 10
    1073.584595
 20
    1824.243774
 30
       0.000000
  0
VERTEX
  8
0
  6
HILFSLINIE
 62
     8
 10
    1233.584595
 20
    1824.243774
 30
       0.000000
  0
VERTEX
  8
0
  6
HILFSLINIE
 62
     8
 10
    1831.839478
 20
    1824.243774
 30
       0.000000
  0
SEQEND
  8
0
  6
HILFSLINIE
 62
     8
  0
CIRCLE
  8
0
  6
HILFSLINIE
 62
     8
 10
    1033.584595
 20
     822.878662
 40
      65.711800
  0
CIRCLE
  8
0
  6
HILFSLINIE
 62
     8
 10
    1033.584595
 20
     822.878662
 40
      51.638905
  0
CIRCLE
  8
0
  6
HILFSLINIE
 62
     8
 10
    1033.584595
 20
     822.878662
 40
      48.371998
  0
LINE
  8
0
  6
MITTELLINIE
 62
     8
 10
    2033.584473
 20
     822.878662
 11
      33.584648
 21
     822.878662
  0
LINE
  8
0
  6
MITTELLINIE
 62
     8
 10
    1033.584595
 20
     322.878693
 11
    1033.584595
 21
    1322.878540
  0
LINE
  8
0
  6
MITTELLINIE
 62
     8
 10
    1033.584595
 20
    1842.878540
 11
    1033.584595
 21
    1485.584106
  0
LINE
  8
0
  6
MITTELLINIE
 62
     8
 10
     997.184509
 20
    1777.878540
 11
    1069.984619
 21
    1777.878540
  0
LINE
  8
0
  6
MITTELLINIE
 62
     8
 10
    2583.584473
 20
    1842.878540
 11
    2583.584473
 21
    1485.584106
  0
ARC
  8
0
 62
     8
 10
    2010.584595
 20
    1299.878540
 40
      22.999998
 50
       0.000000
 51
      90.000000
  0
ARC
  8
0
 62
     8
 10
    2010.584595
 20
     345.878693
 40
      22.999998
 50
     270.000000
 51
       0.000000
  0
ARC
  8
0
 62
     8
 10
      56.584648
 20
    1299.878540
 40
      22.999998
 50
      90.000000
 51
     180.000000
  0
ARC
  8
0
 62
     8
 10
      56.584648
 20
     345.878693
 40
      22.999998
 50
     180.000000
 51
     270.000000
  0
ARC
  8
0
 62
     8
 10
    1833.584595
 20
     482.878693
 40
      99.999992
 50
     270.000000
 51
       0.000000
  0
ARC
  8
0
 62
     8
 10
     233.584656
 20
     482.878693
 40
      99.999992
 50
     180.000000
 51
     270.000000
  0
ARC
  8
0
 62
     8
 10
    1833.584595
 20
    1162.878540
 40
      99.999992
 50
       0.000000
 51
      90.000000
  0
ARC
  8
0
 62
     8
 10
     233.584656
 20
    1162.878540
 40
      99.999992
 50
      90.000000
 51
     180.000000
  0
ARC
  8
0
 62
     8
 10
      39.584648
 20
    1816.878540
 40
       6.000000
 50
     180.000000
 51
     270.000000
  0
ARC
  8
0
 62
     8
 10
     279.561951
 20
    1611.969727
 40
      89.999992
 50
     194.101074
 51
     267.999969
  0
ARC
  8
0
 62
     8
 10
     967.244629
 20
    1479.889526
 40
      17.999998
 50
      35.241680
 51
      88.000053
  0
ARC
  8
0
 62
     8
 10
     985.212646
 20
    1492.584106
 40
       4.000000
 50
     215.241104
 51
     270.000000
  0
ARC
  8
0
 62
     8
 10
     985.212646
 20
    1492.584106
 40
       7.000000
 50
     215.241257
 51
     270.000000
  0
ARC
  8
0
 62
     8
 10
     967.244629
 20
    1479.889526
 40
      14.999999
 50
      35.241726
 51
      88.000206
  0
ARC
  8
0
 62
     8
 10
     279.561951
 20
    1611.969727
 40
      92.999992
 50
     194.101120
 51
     268.000031
  0
ARC
  8
0
 62
     8
 10
      39.584648
 20
    1836.878540
 40
       6.000000
 50
      90.000000
 51
     180.000000
  0
ARC
  8
0
 62
     8
 10
    1787.607056
 20
    1611.969727
 40
      92.999992
 50
     271.999969
 51
     345.898895
  0
ARC
  8
0
 62
     8
 10
    1099.924561
 20
    1479.889526
 40
      14.999999
 50
      91.999794
 51
     144.758270
  0
ARC
  8
0
 62
     8
 10
    1081.956543
 20
    1492.584106
 40
       7.000000
 50
     270.000000
 51
     324.758728
  0
ARC
  8
0
 62
     8
 10
    1081.956543
 20
    1492.584106
 40
       4.000000
 50
     270.000000
 51
     324.758881
  0
ARC
  8
0
 62
     8
 10
    1099.924561
 20
    1479.889526
 40
      17.999998
 50
      91.999947
 51
     144.758316
  0
ARC
  8
0
 62
     8
 10
    1787.607056
 20
    1611.969727
 40
      89.999992
 50
     272.000092
 51
     345.898926
  0
ARC
  8
0
 62
     8
 10
    2027.584473
 20
    1816.878540
 40
       6.000000
 50
     270.000000
 51
       0.000000
  0
ARC
  8
0
 62
     8
 10
    2027.584473
 20
    1836.878540
 40
       6.000000
 50
       0.000000
 51
      90.000000
  0
ARC
  8
0
 62
     8
 10
    2873.515625
 20
    1595.763306
 40
      92.999992
 50
     272.000122
 51
     345.764069
  0
ARC
  8
0
 62
     8
 10
    2649.924316
 20
    1479.889526
 40
      14.999999
 50
      91.999794
 51
     144.758911
  0
ARC
  8
0
 62
     8
 10
    2631.956543
 20
    1492.584106
 40
       7.000000
 50
     270.000000
 51
     324.756531
  0
ARC
  8
0
 62
     8
 10
    2631.956543
 20
    1492.584106
 40
       4.000000
 50
     270.000000
 51
     324.757874
  0
ARC
  8
0
 62
     8
 10
    2649.924316
 20
    1479.889526
 40
      17.999998
 50
      91.999947
 51
     144.757767
  0
ARC
  8
0
 62
     8
 10
    2873.515625
 20
    1595.763306
 40
      89.999992
 50
     272.000092
 51
     345.764191
  0
ARC
  8
0
 62
     8
 10
    2535.212402
 20
    1492.584106
 40
       7.000000
 50
     215.241837
 51
     270.000000
  0
ARC
  8
0
 62
     8
 10
    2517.244385
 20
    1479.889526
 40
      14.999999
 50
      35.241455
 51
      88.000206
  0
ARC
  8
0
 62
     8
 10
    2535.212402
 20
    1492.584106
 40
       4.000000
 50
     215.242126
 51
     270.000000
  0
ARC
  8
0
 62
     8
 10
    2517.244385
 20
    1479.889526
 40
      17.999998
 50
      35.241455
 51
      88.000053
  0
ARC
  8
0
 62
     8
 10
    2089.584473
 20
    1836.878540
 40
       3.000000
 50
      91.730194
 51
     180.000000
  0
ARC
  8
0
 62
     8
 10
    2089.584473
 20
    1816.878540
 40
       3.000000
 50
     180.000000
 51
     270.000000
  0
ARC
  8
0
 62
     8
 10
    2089.584473
 20
    1816.878540
 40
       6.000000
 50
     180.000000
 51
     270.000000
  0
ARC
  8
0
 62
     8
 10
    2128.033936
 20
    1820.021606
 40
      19.999998
 50
      12.187276
 51
      85.829918
  0
ARC
  8
0
 62
     8
 10
    2293.653076
 20
    1595.763306
 40
      89.999992
 50
     194.235733
 51
     268.000061
  0
ARC
  8
0
 62
     8
 10
    2293.653076
 20
    1595.763306
 40
      92.999992
 50
     194.235779
 51
     268.000031
  0
ARC
  8
0
 62
     8
 10
    2128.033936
 20
    1820.021606
 40
      16.999998
 50
      12.187339
 51
      85.828674
  0
ARC
  8
0
 62
     8
 10
    2089.584473
 20
    1836.878540
 40
       6.000000
 50
      90.000000
 51
     180.000000
  0
ARC
  8
0
 62
     8
 10
    3039.135010
 20
    1820.021606
 40
      16.999998
 50
      94.171326
 51
     167.812668
  0
ARC
  8
0
 62
     8
 10
    3039.135010
 20
    1820.021606
 40
      19.999998
 50
      94.170776
 51
     167.812714
  0
ARC
  8
0
 62
     8
 10
    3077.584473
 20
    1816.878540
 40
       6.000000
 50
     270.000000
 51
       0.000000
  0
ARC
  8
0
 62
     8
 10
    3077.584473
 20
    1816.878540
 40
       3.000000
 50
     270.000000
 51
       0.000000
  0
ARC
  8
0
 62
     8
 10
    3077.584473
 20
    1836.878540
 40
       3.000000
 50
       0.000000
 51
      88.269806
  0
ARC
  8
0
 62
     8
 10
    3077.584473
 20
    1836.878540
 40
       6.000000
 50
       0.000000
 51
      90.000000
  0
LINE
  8
0
 62
     8
 10
      56.584648
 20
    1322.878540
 11
    2010.584595
 21
    1322.878540
  0
LINE
  8
0
 62
     8
 10
    2033.584473
 20
    1299.878540
 11
    2033.584473
 21
     345.878693
  0
LINE
  8
0
 62
     8
 10
      56.584648
 20
     322.878693
 11
    2010.584595
 21
     322.878693
  0
LINE
  8
0
 62
     8
 10
      33.584648
 20
    1299.878540
 11
      33.584648
 21
     345.878693
  0
LINE
  8
0
 62
     8
 10
     233.584656
 20
     382.878693
 11
    1833.584595
 21
     382.878693
  0
LINE
  8
0
 62
     8
 10
    1933.584595
 20
    1162.878540
 11
    1933.584595
 21
     482.878693
  0
LINE
  8
0
 62
     8
 10
     233.584656
 20
    1262.878540
 11
    1833.584595
 21
    1262.878540
  0
LINE
  8
0
 62
     8
 10
     133.584656
 20
     482.878693
 11
     133.584656
 21
    1162.878540
  0
LINE
  8
0
 62
     8
 10
      33.584648
 20
    1816.878540
 11
      33.584648
 21
    1836.878540
  0
LINE
  8
0
 62
     8
 10
     967.872803
 20
    1497.878540
 11
     276.420959
 21
    1522.024536
  0
LINE
  8
0
 62
     8
 10
     988.584595
 20
    1488.584106
 11
     988.584595
 21
    1485.584106
  0
LINE
  8
0
 62
     8
 10
     967.768066
 20
    1494.880371
 11
     276.316345
 21
    1519.026367
  0
LINE
  8
0
 62
     8
 10
    1790.852661
 20
    1519.026367
 11
    1099.401123
 21
    1494.880371
  0
LINE
  8
0
 62
     8
 10
    1078.584595
 20
    1485.584106
 11
    1078.584595
 21
    1488.584106
  0
LINE
  8
0
 62
     8
 10
    1790.748169
 20
    1522.024536
 11
    1099.296387
 21
    1497.878540
  0
LINE
  8
0
 62
     8
 10
    2033.584473
 20
    1836.878540
 11
    2033.584473
 21
    1816.878540
  0
LINE
  8
0
 62
     8
 10
    1081.956543
 20
    1485.584106
 11
     985.212646
 21
    1485.584106
  0
LINE
  8
0
 62
     8
 10
    1081.956543
 20
    1488.584106
 11
     985.212646
 21
    1488.584106
  0
LINE
  8
0
 62
     8
 10
      39.584648
 20
    1842.878540
 11
    2027.584473
 21
    1842.878540
  0
LINE
  8
0
 62
     8
 10
     967.872803
 20
    1497.878540
 11
    1099.296387
 21
    1497.878540
  0
LINE
  8
0
 62
     8
 10
      39.584648
 20
    1810.878540
 11
    2027.584473
 21
    1810.878540
  0
LINE
  8
0
 62
     8
 10
    3006.638184
 20
    1751.859009
 11
    3003.709961
 21
    1752.511353
  0
LINE
  8
0
 62
     8
 10
    3015.022217
 20
    1803.266235
 11
    3017.950439
 21
    1802.613403
  0
LINE
  8
0
 62
     8
 10
    3037.448730
 20
    1839.951782
 11
    3077.584473
 21
    1842.878540
  0
LINE
  8
0
 62
     8
 10
    2089.584473
 20
    1842.878540
 11
    2129.717285
 21
    1839.952271
  0
LINE
  8
0
 62
     8
 10
    3077.675049
 20
    1839.877075
 11
    3037.898438
 21
    1836.976685
  0
LINE
  8
0
 62
     8
 10
    2129.270508
 20
    1836.976685
 11
    2089.493896
 21
    1839.877075
  0
LINE
  8
0
 62
     8
 10
    2876.761475
 20
    1502.819946
 11
    2649.400879
 21
    1494.880371
  0
LINE
  8
0
 62
     8
 10
    2517.767822
 20
    1494.880371
 11
    2290.407471
 21
    1502.819946
  0
LINE
  8
0
 62
     8
 10
    2628.584473
 20
    1485.584106
 11
    2628.584473
 21
    1488.584106
  0
LINE
  8
0
 62
     8
 10
    2876.656738
 20
    1505.818115
 11
    2649.296143
 21
    1497.878540
  0
LINE
  8
0
 62
     8
 10
    2517.872559
 20
    1497.878540
 11
    2290.512207
 21
    1505.818115
  0
LINE
  8
0
 62
     8
 10
    2538.584473
 20
    1488.584106
 11
    2538.584473
 21
    1485.584106
  0
LINE
  8
0
 62
     8
 10
    2086.584473
 20
    1816.878540
 11
    2086.584473
 21
    1836.878540
  0
LINE
  8
0
 62
     8
 10
    2098.584473
 20
    1813.878540
 11
    2098.584473
 21
    1810.878540
  0
LINE
  8
0
 62
     8
 10
    2083.584473
 20
    1816.878540
 11
    2083.584473
 21
    1836.878540
  0
LINE
  8
0
 62
     8
 10
    2535.212402
 20
    1488.584106
 11
    2631.956543
 21
    1488.584106
  0
LINE
  8
0
 62
     8
 10
    2535.212402
 20
    1485.584106
 11
    2631.956543
 21
    1485.584106
  0
LINE
  8
0
 62
     8
 10
    3083.584473
 20
    1836.878540
 11
    3083.584473
 21
    1816.878540
  0
LINE
  8
0
 62
     8
 10
    3068.584473
 20
    1810.878540
 11
    3068.584473
 21
    1813.878540
  0
LINE
  8
0
 62
     8
 10
    3080.584473
 20
    1836.878540
 11
    3080.584473
 21
    1816.878540
  0
LINE
  8
0
 62
     8
 10
    2089.759277
 20
    1842.878540
 11
    3077.409424
 21
    1842.878540
  0
LINE
  8
0
 62
     8
 10
    2098.584473
 20
    1813.878540
 11
    2089.584473
 21
    1813.878540
  0
LINE
  8
0
 62
     8
 10
    3068.584473
 20
    1813.878540
 11
    3077.584473
 21
    1813.878540
  0
LINE
  8
0
 62
     8
 10
    2098.584473
 20
    1810.878540
 11
    2089.584473
 21
    1810.878540
  0
LINE
  8
0
 62
     8
 10
    3068.584473
 20
    1810.878540
 11
    3077.584473
 21
    1810.878540
  0
LINE
  8
0
 62
     8
 10
    2517.872559
 20
    1497.878540
 11
    2649.296143
 21
    1497.878540
  0
LINE
  8
0
 62
     8
 10
    3009.366699
 20
    1777.888794
 11
    3012.294922
 21
    1777.235962
  0
POLYLINE
  8
0
 62
     8
 66
     1
 10
       0.000000
 20
       0.000000
 30
       0.000000
  0
VERTEX
  8
0
 62
     8
 10
    1033.584595
 20
     391.440796
 30
       0.000000
  0
VERTEX
  8
0
 62
     8
 10
    1029.220093
 20
     391.520386
 30
       0.000000
  0
VERTEX
  8
0
 62
     8
 10
    1024.978516
 20
     391.754639
 30
       0.000000
  0
VERTEX
  8
0
 62
     8
 10
    1020.982971
 20
     392.139404
 30
       0.000000
  0
VERTEX
  8
0
 62
     8
 10
    1017.342590
 20
     392.662354
 30
       0.000000
  0
VERTEX
  8
0
 62
     8
 10
    1014.166565
 20
     393.310913
 30
       0.000000
  0
VERTEX
  8
0
 62
     8
 10
    1011.537903
 20
     394.065796
 30
       0.000000
  0
VERTEX
  8
0
 62
     8
 10
    1009.539368
 20
     394.907593
 30
       0.000000
  0
VERTEX
  8
0
 62
     8
 10
    1008.218811
 20
     395.811768
 30
       0.000000
  0
VERTEX
  8
0
 62
     8
 10
    1007.623108
 20
     396.753784
 30
       0.000000
  0
VERTEX
  8
0
 62
     8
 10
    1007.759338
 20
     397.706665
 30
       0.000000
  0
VERTEX
  8
0
 62
     8
 10
    1008.633850
 20
     398.643433
 30
       0.000000
  0
VERTEX
  8
0
 62
     8
 10
    1010.211609
 20
     399.537598
 30
       0.000000
  0
VERTEX
  8
0
 62
     8
 10
    1012.457581
 20
     400.362549
 30
       0.000000
  0
VERTEX
  8
0
 62
     8
 10
    1015.299011
 20
     401.095337
 30
       0.000000
  0
VERTEX
  8
0
 62
     8
 10
    1018.663147
 20
     401.713135
 30
       0.000000
  0
VERTEX
  8
0
 62
     8
 10
    1022.447815
 20
     402.199707
 30
       0.000000
  0
VERTEX
  8
0
 62
     8
 10
    1026.551025
 20
     402.538330
 30
       0.000000
  0
VERTEX
  8
0
 62
     8
 10
    1030.852417
 20
     402.721313
 30
       0.000000
  0
VERTEX
  8
0
 62
     8
 10
    1033.584595
 20
     402.753174
 30
       0.000000
  0
SEQEND
  8
0
 62
     8
  0
POLYLINE
  8
0
 62
     8
 66
     1
 10
       0.000000
 20
       0.000000
 30
       0.000000
  0
VERTEX
  8
0
 62
     8
 10
    1033.584595
 20
     402.753174
 30
       0.000000
  0
VERTEX
  8
0
 62
     8
 10
    1037.949219
 20
     402.671021
 30
       0.000000
  0
VERTEX
  8
0
 62
     8
 10
    1042.190674
 20
     402.429321
 30
       0.000000
  0
VERTEX
  8
0
 62
     8
 10
    1046.186279
 20
     402.032959
 30
       0.000000
  0
VERTEX
  8
0
 62
     8
 10
    1049.826538
 20
     401.495850
 30
       0.000000
  0
VERTEX
  8
0
 62
     8
 10
    1053.002563
 20
     400.831909
 30
       0.000000
  0
VERTEX
  8
0
 62
     8
 10
    1055.631226
 20
     400.062256
 30
       0.000000
  0
VERTEX
  8
0
 62
     8
 10
    1057.629761
 20
     399.208008
 30
       0.000000
  0
VERTEX
  8
0
 62
     8
 10
    1058.950439
 20
     398.295044
 30
       0.000000
  0
VERTEX
  8
0
 62
     8
 10
    1059.546021
 20
     397.348877
 30
       0.000000
  0
VERTEX
  8
0
 62
     8
 10
    1059.409790
 20
     396.396851
 30
       0.000000
  0
VERTEX
  8
0
 62
     8
 10
    1058.535278
 20
     395.466187
 30
       0.000000
  0
VERTEX
  8
0
 62
     8
 10
    1056.957520
 20
     394.582397
 30
       0.000000
  0
VERTEX
  8
0
 62
     8
 10
    1054.711548
 20
     393.770996
 30
       0.000000
  0
VERTEX
  8
0
 62
     8
 10
    1051.870239
 20
     393.053345
 30
       0.000000
  0
VERTEX
  8
0
 62
     8
 10
    1048.505981
 20
     392.450562
 30
       0.000000
  0
VERTEX
  8
0
 62
     8
 10
    1044.721313
 20
     391.977539
 30
       0.000000
  0
VERTEX
  8
0
 62
     8
 10
    1040.618164
 20
     391.648926
 30
       0.000000
  0
VERTEX
  8
0
 62
     8
 10
    1036.316772
 20
     391.471680
 30
       0.000000
  0
VERTEX
  8
0
 62
     8
 10
    1033.584595
 20
     391.440796
 30
       0.000000
  0
SEQEND
  8
0
 62
     8
  0
POLYLINE
  8
0
 62
     8
 66
     1
 10
       0.000000
 20
       0.000000
 30
       0.000000
  0
VERTEX
  8
0
 62
     8
 10
    1033.584595
 20
     399.824951
 30
       0.000000
  0
VERTEX
  8
0
 62
     8
 10
    1037.949219
 20
     399.742920
 30
       0.000000
  0
VERTEX
  8
0
 62
     8
 10
    1042.190674
 20
     399.501221
 30
       0.000000
  0
VERTEX
  8
0
 62
     8
 10
    1046.186279
 20
     399.104858
 30
       0.000000
  0
VERTEX
  8
0
 62
     8
 10
    1049.826538
 20
     398.567749
 30
       0.000000
  0
VERTEX
  8
0
 62
     8
 10
    1053.002563
 20
     397.903809
 30
       0.000000
  0
VERTEX
  8
0
 62
     8
 10
    1055.631226
 20
     397.134155
 30
       0.000000
  0
VERTEX
  8
0
 62
     8
 10
    1057.629761
 20
     396.279907
 30
       0.000000
  0
VERTEX
  8
0
 62
     8
 10
    1058.642212
 20
     395.579956
 30
       0.000000
  0
SEQEND
  8
0
 62
     8
  0
POLYLINE
  8
0
 62
     8
 66
     1
 10
       0.000000
 20
       0.000000
 30
       0.000000
  0
VERTEX
  8
0
 62
     8
 10
    1008.555969
 20
     395.580933
 30
       0.000000
  0
VERTEX
  8
0
 62
     8
 10
    1009.144226
 20
     396.057861
 30
       0.000000
  0
VERTEX
  8
0
 62
     8
 10
    1010.982483
 20
     396.928711
 30
       0.000000
  0
VERTEX
  8
0
 62
     8
 10
    1013.457825
 20
     397.722046
 30
       0.000000
  0
VERTEX
  8
0
 62
     8
 10
    1016.508606
 20
     398.413574
 30
       0.000000
  0
VERTEX
  8
0
 62
     8
 10
    1020.040710
 20
     398.984619
 30
       0.000000
  0
VERTEX
  8
0
 62
     8
 10
    1023.959900
 20
     399.416260
 30
       0.000000
  0
VERTEX
  8
0
 62
     8
 10
    1028.150513
 20
     399.698120
 30
       0.000000
  0
VERTEX
  8
0
 62
     8
 10
    1033.584595
 20
     399.824951
 30
       0.000000
  0
SEQEND
  8
0
 62
     8
  0
POLYLINE
  8
0
 62
     8
 66
     1
 10
       0.000000
 20
       0.000000
 30
       0.000000
  0
VERTEX
  8
0
 62
     8
 10
     140.499023
 20
    1810.878540
 30
       0.000000
  0
VERTEX
  8
0
 62
     8
 10
     144.082458
 20
    1794.457642
 30
       0.000000
  0
VERTEX
  8
0
 62
     8
 10
     150.601562
 20
    1765.171021
 30
       0.000000
  0
VERTEX
  8
0
 62
     8
 10
     157.242676
 20
    1735.911255
 30
       0.000000
  0
VERTEX
  8
0
 62
     8
 10
     164.005676
 20
    1706.679810
 30
       0.000000
  0
VERTEX
  8
0
 62
     8
 10
     170.890381
 20
    1677.476685
 30
       0.000000
  0
VERTEX
  8
0
 62
     8
 10
     177.896729
 20
    1648.302368
 30
       0.000000
  0
VERTEX
  8
0
 62
     8
 10
     185.024658
 20
    1619.157593
 30
       0.000000
  0
VERTEX
  8
0
 62
     8
 10
     192.273926
 20
    1590.042725
 30
       0.000000
  0
SEQEND
  8
0
 62
     8
  0
POLYLINE
  8
0
 62
     8
 66
     1
 10
       0.000000
 20
       0.000000
 30
       0.000000
  0
VERTEX
  8
0
 62
     8
 10
     137.428406
 20
    1810.878540
 30
       0.000000
  0
VERTEX
  8
0
 62
     8
 10
     141.152771
 20
    1793.812134
 30
       0.000000
  0
VERTEX
  8
0
 62
     8
 10
     147.674622
 20
    1764.512817
 30
       0.000000
  0
VERTEX
  8
0
 62
     8
 10
     154.318481
 20
    1735.241333
 30
       0.000000
  0
VERTEX
  8
0
 62
     8
 10
     161.084290
 20
    1705.997437
 30
       0.000000
  0
VERTEX
  8
0
 62
     8
 10
     167.971863
 20
    1676.782104
 30
       0.000000
  0
VERTEX
  8
0
 62
     8
 10
     174.981140
 20
    1647.595703
 30
       0.000000
  0
VERTEX
  8
0
 62
     8
 10
     182.112000
 20
    1618.438843
 30
       0.000000
  0
VERTEX
  8
0
 62
     8
 10
     189.364319
 20
    1589.311890
 30
       0.000000
  0
SEQEND
  8
0
 62
     8
  0
POLYLINE
  8
0
 62
     8
 66
     1
 10
       0.000000
 20
       0.000000
 30
       0.000000
  0
VERTEX
  8
0
 62
     8
 10
    1874.895142
 20
    1590.042725
 30
       0.000000
  0
VERTEX
  8
0
 62
     8
 10
    1882.144653
 20
    1619.157593
 30
       0.000000
  0
VERTEX
  8
0
 62
     8
 10
    1889.272583
 20
    1648.302368
 30
       0.000000
  0
VERTEX
  8
0
 62
     8
 10
    1896.278931
 20
    1677.476685
 30
       0.000000
  0
VERTEX
  8
0
 62
     8
 10
    1903.163696
 20
    1706.679810
 30
       0.000000
  0
VERTEX
  8
0
 62
     8
 10
    1909.926392
 20
    1735.911255
 30
       0.000000
  0
VERTEX
  8
0
 62
     8
 10
    1916.567505
 20
    1765.171021
 30
       0.000000
  0
VERTEX
  8
0
 62
     8
 10
    1923.086792
 20
    1794.457642
 30
       0.000000
  0
VERTEX
  8
0
 62
     8
 10
    1926.670044
 20
    1810.878540
 30
       0.000000
  0
SEQEND
  8
0
 62
     8
  0
POLYLINE
  8
0
 62
     8
 66
     1
 10
       0.000000
 20
       0.000000
 30
       0.000000
  0
VERTEX
  8
0
 62
     8
 10
    1877.804810
 20
    1589.311890
 30
       0.000000
  0
VERTEX
  8
0
 62
     8
 10
    1885.057251
 20
    1618.438843
 30
       0.000000
  0
VERTEX
  8
0
 62
     8
 10
    1892.188110
 20
    1647.595703
 30
       0.000000
  0
VERTEX
  8
0
 62
     8
 10
    1899.197388
 20
    1676.782104
 30
       0.000000
  0
VERTEX
  8
0
 62
     8
 10
    1906.085083
 20
    1705.997437
 30
       0.000000
  0
VERTEX
  8
0
 62
     8
 10
    1912.850708
 20
    1735.241333
 30
       0.000000
  0
VERTEX
  8
0
 62
     8
 10
    1919.494751
 20
    1764.512817
 30
       0.000000
  0
VERTEX
  8
0
 62
     8
 10
    1926.016479
 20
    1793.812134
 30
       0.000000
  0
VERTEX
  8
0
 62
     8
 10
    1929.740845
 20
    1810.878540
 30
       0.000000
  0
SEQEND
  8
0
 62
     8
  0
POLYLINE
  8
0
 62
     8
 66
     1
 10
       0.000000
 20
       0.000000
 30
       0.000000
  0
VERTEX
  8
0
 62
     8
 10
    3006.638184
 20
    1751.859009
 30
       0.000000
  0
VERTEX
  8
0
 62
     8
 10
    3006.717285
 20
    1752.208618
 30
       0.000000
  0
VERTEX
  8
0
 62
     8
 10
    3006.961914
 20
    1753.288208
 30
       0.000000
  0
VERTEX
  8
0
 62
     8
 10
    3007.351074
 20
    1755.007446
 30
       0.000000
  0
VERTEX
  8
0
 62
     8
 10
    3007.895264
 20
    1757.415649
 30
       0.000000
  0
VERTEX
  8
0
 62
     8
 10
    3008.548584
 20
    1760.311157
 30
       0.000000
  0
VERTEX
  8
0
 62
     8
 10
    3009.328857
 20
    1763.776978
 30
       0.000000
  0
VERTEX
  8
0
 62
     8
 10
    3010.170166
 20
    1767.522339
 30
       0.000000
  0
VERTEX
  8
0
 62
     8
 10
    3011.096191
 20
    1771.655640
 30
       0.000000
  0
VERTEX
  8
0
 62
     8
 10
    3012.028564
 20
    1775.829468
 30
       0.000000
  0
VERTEX
  8
0
 62
     8
 10
    3012.994385
 20
    1780.164429
 30
       0.000000
  0
VERTEX
  8
0
 62
     8
 10
    3013.912109
 20
    1784.296265
 30
       0.000000
  0
VERTEX
  8
0
 62
     8
 10
    3014.808838
 20
    1788.343872
 30
       0.000000
  0
VERTEX
  8
0
 62
     8
 10
    3015.609619
 20
    1791.967896
 30
       0.000000
  0
VERTEX
  8
0
 62
     8
 10
    3016.337891
 20
    1795.271851
 30
       0.000000
  0
VERTEX
  8
0
 62
     8
 10
    3016.933350
 20
    1797.978638
 30
       0.000000
  0
VERTEX
  8
0
 62
     8
 10
    3017.413818
 20
    1800.165649
 30
       0.000000
  0
VERTEX
  8
0
 62
     8
 10
    3017.739258
 20
    1801.649536
 30
       0.000000
  0
VERTEX
  8
0
 62
     8
 10
    3017.919678
 20
    1802.472778
 30
       0.000000
  0
VERTEX
  8
0
 62
     8
 10
    3017.950439
 20
    1802.613403
 30
       0.000000
  0
SEQEND
  8
0
 62
     8
  0
POLYLINE
  8
0
 62
     8
 66
     1
 10
       0.000000
 20
       0.000000
 30
       0.000000
  0
VERTEX
  8
0
 62
     8
 10
    3003.709961
 20
    1752.511353
 30
       0.000000
  0
VERTEX
  8
0
 62
     8
 10
    3003.729736
 20
    1752.598267
 30
       0.000000
  0
VERTEX
  8
0
 62
     8
 10
    3003.789062
 20
    1752.861206
 30
       0.000000
  0
VERTEX
  8
0
 62
     8
 10
    3003.890625
 20
    1753.309204
 30
       0.000000
  0
VERTEX
  8
0
 62
     8
 10
    3004.033691
 20
    1753.941040
 30
       0.000000
  0
VERTEX
  8
0
 62
     8
 10
    3004.209717
 20
    1754.717407
 30
       0.000000
  0
VERTEX
  8
0
 62
     8
 10
    3004.676758
 20
    1756.782837
 30
       0.000000
  0
VERTEX
  8
0
 62
     8
 10
    3004.967285
 20
    1758.068481
 30
       0.000000
  0
VERTEX
  8
0
 62
     8
 10
    3005.278564
 20
    1759.447388
 30
       0.000000
  0
VERTEX
  8
0
 62
     8
 10
    3005.996826
 20
    1762.634399
 30
       0.000000
  0
VERTEX
  8
0
 62
     8
 10
    3006.400879
 20
    1764.429321
 30
       0.000000
  0
VERTEX
  8
0
 62
     8
 10
    3006.811279
 20
    1766.255493
 30
       0.000000
  0
VERTEX
  8
0
 62
     8
 10
    3007.242188
 20
    1768.174927
 30
       0.000000
  0
VERTEX
  8
0
 62
     8
 10
    3007.697510
 20
    1770.205933
 30
       0.000000
  0
VERTEX
  8
0
 62
     8
 10
    3008.167969
 20
    1772.308228
 30
       0.000000
  0
VERTEX
  8
0
 62
     8
 10
    3008.630371
 20
    1774.375854
 30
       0.000000
  0
VERTEX
  8
0
 62
     8
 10
    3009.582520
 20
    1778.644409
 30
       0.000000
  0
VERTEX
  8
0
 62
     8
 10
    3010.066162
 20
    1780.817017
 30
       0.000000
  0
VERTEX
  8
0
 62
     8
 10
    3010.527588
 20
    1782.893188
 30
       0.000000
  0
VERTEX
  8
0
 62
     8
 10
    3011.438477
 20
    1786.998657
 30
       0.000000
  0
VERTEX
  8
0
 62
     8
 10
    3011.880615
 20
    1788.996704
 30
       0.000000
  0
VERTEX
  8
0
 62
     8
 10
    3012.289795
 20
    1790.847046
 30
       0.000000
  0
VERTEX
  8
0
 62
     8
 10
    3013.057617
 20
    1794.326538
 30
       0.000000
  0
VERTEX
  8
0
 62
     8
 10
    3013.409668
 20
    1795.924438
 30
       0.000000
  0
VERTEX
  8
0
 62
     8
 10
    3013.721436
 20
    1797.340454
 30
       0.000000
  0
VERTEX
  8
0
 62
     8
 10
    3014.005127
 20
    1798.631226
 30
       0.000000
  0
VERTEX
  8
0
 62
     8
 10
    3014.262207
 20
    1799.800903
 30
       0.000000
  0
VERTEX
  8
0
 62
     8
 10
    3014.485596
 20
    1800.818481
 30
       0.000000
  0
VERTEX
  8
0
 62
     8
 10
    3014.665771
 20
    1801.639771
 30
       0.000000
  0
VERTEX
  8
0
 62
     8
 10
    3014.811035
 20
    1802.302368
 30
       0.000000
  0
VERTEX
  8
0
 62
     8
 10
    3014.920898
 20
    1802.803589
 30
       0.000000
  0
VERTEX
  8
0
 62
     8
 10
    3014.991455
 20
    1803.125610
 30
       0.000000
  0
VERTEX
  8
0
 62
     8
 10
    3015.022217
 20
    1803.266235
 30
       0.000000
  0
SEQEND
  8
0
 62
     8
  0
POLYLINE
  8
0
 62
     8
 66
     1
 10
       0.000000
 20
       0.000000
 30
       0.000000
  0
VERTEX
  8
0
 62
     8
 10
    3006.638184
 20
    1751.859009
 30
       0.000000
  0
VERTEX
  8
0
 62
     8
 10
    3001.516113
 20
    1729.428833
 30
       0.000000
  0
VERTEX
  8
0
 62
     8
 10
    2996.322510
 20
    1707.015259
 30
       0.000000
  0
VERTEX
  8
0
 62
     8
 10
    2991.057373
 20
    1684.618774
 30
       0.000000
  0
VERTEX
  8
0
 62
     8
 10
    2985.720703
 20
    1662.238892
 30
       0.000000
  0
VERTEX
  8
0
 62
     8
 10
    2980.312500
 20
    1639.876221
 30
       0.000000
  0
VERTEX
  8
0
 62
     8
 10
    2974.833008
 20
    1617.530884
 30
       0.000000
  0
VERTEX
  8
0
 62
     8
 10
    2969.281982
 20
    1595.203247
 30
       0.000000
  0
VERTEX
  8
0
 62
     8
 10
    2963.659912
 20
    1572.893433
 30
       0.000000
  0
SEQEND
  8
0
 62
     8
  0
POLYLINE
  8
0
 62
     8
 66
     1
 10
       0.000000
 20
       0.000000
 30
       0.000000
  0
VERTEX
  8
0
 62
     8
 10
    3003.709961
 20
    1752.511353
 30
       0.000000
  0
VERTEX
  8
0
 62
     8
 10
    2998.590332
 20
    1730.092163
 30
       0.000000
  0
VERTEX
  8
0
 62
     8
 10
    2993.399170
 20
    1707.689575
 30
       0.000000
  0
VERTEX
  8
0
 62
     8
 10
    2988.136475
 20
    1685.303345
 30
       0.000000
  0
VERTEX
  8
0
 62
     8
 10
    2982.802246
 20
    1662.934082
 30
       0.000000
  0
VERTEX
  8
0
 62
     8
 10
    2977.396729
 20
    1640.582031
 30
       0.000000
  0
VERTEX
  8
0
 62
     8
 10
    2971.919678
 20
    1618.247437
 30
       0.000000
  0
VERTEX
  8
0
 62
     8
 10
    2966.371582
 20
    1595.930420
 30
       0.000000
  0
VERTEX
  8
0
 62
     8
 10
    2960.751953
 20
    1573.631226
 30
       0.000000
  0
SEQEND
  8
0
 62
     8
  0
POLYLINE
  8
0
 62
     8
 66
     1
 10
       0.000000
 20
       0.000000
 30
       0.000000
  0
VERTEX
  8
0
 62
     8
 10
    2206.416992
 20
    1573.631226
 30
       0.000000
  0
VERTEX
  8
0
 62
     8
 10
    2198.573242
 20
    1604.840454
 30
       0.000000
  0
VERTEX
  8
0
 62
     8
 10
    2190.868896
 20
    1636.084595
 30
       0.000000
  0
VERTEX
  8
0
 62
     8
 10
    2183.304443
 20
    1667.362793
 30
       0.000000
  0
VERTEX
  8
0
 62
     8
 10
    2175.879883
 20
    1698.674438
 30
       0.000000
  0
VERTEX
  8
0
 62
     8
 10
    2168.595215
 20
    1730.019165
 30
       0.000000
  0
VERTEX
  8
0
 62
     8
 10
    2161.450928
 20
    1761.395874
 30
       0.000000
  0
VERTEX
  8
0
 62
     8
 10
    2154.446777
 20
    1792.804321
 30
       0.000000
  0
VERTEX
  8
0
 62
     8
 10
    2147.583252
 20
    1824.243774
 30
       0.000000
  0
SEQEND
  8
0
 62
     8
  0
POLYLINE
  8
0
 62
     8
 66
     1
 10
       0.000000
 20
       0.000000
 30
       0.000000
  0
VERTEX
  8
0
 62
     8
 10
    2203.509033
 20
    1572.893433
 30
       0.000000
  0
VERTEX
  8
0
 62
     8
 10
    2195.662109
 20
    1604.115723
 30
       0.000000
  0
VERTEX
  8
0
 62
     8
 10
    2187.954590
 20
    1635.372925
 30
       0.000000
  0
VERTEX
  8
0
 62
     8
 10
    2180.386963
 20
    1666.664185
 30
       0.000000
  0
VERTEX
  8
0
 62
     8
 10
    2172.959473
 20
    1697.988892
 30
       0.000000
  0
VERTEX
  8
0
 62
     8
 10
    2165.671875
 20
    1729.346558
 30
       0.000000
  0
VERTEX
  8
0
 62
     8
 10
    2158.524414
 20
    1760.736450
 30
       0.000000
  0
VERTEX
  8
0
 62
     8
 10
    2151.517334
 20
    1792.157837
 30
       0.000000
  0
VERTEX
  8
0
 62
     8
 10
    2144.650879
 20
    1823.610474
 30
       0.000000
  0
SEQEND
  8
0
 62
     8
  0
POLYLINE
  8
0
 62
     8
 66
     1
 10
       0.000000
 20
       0.000000
 30
       0.000000
  0
VERTEX
  8
0
 62
     8
 10
    3022.518066
 20
    1823.610474
 30
       0.000000
  0
VERTEX
  8
0
 62
     8
 10
    3021.950439
 20
    1820.984985
 30
       0.000000
  0
VERTEX
  8
0
 62
     8
 10
    3021.382080
 20
    1818.359985
 30
       0.000000
  0
VERTEX
  8
0
 62
     8
 10
    3020.812500
 20
    1815.734985
 30
       0.000000
  0
VERTEX
  8
0
 62
     8
 10
    3020.241943
 20
    1813.110229
 30
       0.000000
  0
VERTEX
  8
0
 62
     8
 10
    3019.670654
 20
    1810.485718
 30
       0.000000
  0
VERTEX
  8
0
 62
     8
 10
    3019.098145
 20
    1807.861450
 30
       0.000000
  0
VERTEX
  8
0
 62
     8
 10
    3018.524902
 20
    1805.237427
 30
       0.000000
  0
VERTEX
  8
0
 62
     8
 10
    3017.950439
 20
    1802.613403
 30
       0.000000
  0
SEQEND
  8
0
 62
     8
  0
POLYLINE
  8
0
 62
     8
 66
     1
 10
       0.000000
 20
       0.000000
 30
       0.000000
  0
VERTEX
  8
0
 62
     8
 10
    3019.585693
 20
    1824.243774
 30
       0.000000
  0
VERTEX
  8
0
 62
     8
 10
    3019.018555
 20
    1821.620728
 30
       0.000000
  0
VERTEX
  8
0
 62
     8
 10
    3018.450684
 20
    1818.998169
 30
       0.000000
  0
VERTEX
  8
0
 62
     8
 10
    3017.881592
 20
    1816.375610
 30
       0.000000
  0
VERTEX
  8
0
 62
     8
 10
    3017.311768
 20
    1813.753296
 30
       0.000000
  0
VERTEX
  8
0
 62
     8
 10
    3016.740967
 20
    1811.130981
 30
       0.000000
  0
VERTEX
  8
0
 62
     8
 10
    3016.168945
 20
    1808.509399
 30
       0.000000
  0
VERTEX
  8
0
 62
     8
 10
    3015.596191
 20
    1805.887573
 30
       0.000000
  0
VERTEX
  8
0
 62
     8
 10
    3015.022217
 20
    1803.266235
 30
       0.000000
  0
SEQEND
  8
0
 62
     8
  0
CIRCLE
  8
0
 62
     8
 10
    1033.584595
 20
     822.878662
 40
      44.999996
  0
CIRCLE
  8
0
 62
     8
 10
    1033.584595
 20
    1777.878540
 40
      25.999998
  0
TEXT
  8
0
 10
    2566.389160
 20
    1037.648193
 40
     100.000000
 50
       0.000037
 51
       0.000000
 41
       0.754247
  1
BASSINO
  7
DIN-6776
 72
     5
 11
    2923.029053
 21
    1037.648438
  0
TEXT
  8
0
 10
    3187.381348
 20
     662.370850
 40
      66.666664
 50
       0.000027
 51
       0.000000
 41
       0.919239
  1
355
  7
DIN-6776
 72
     5
 11
    3300.048096
 21
     662.370911
  0
TEXT
  8
0
 10
    2854.047852
 20
     662.370850
 40
      66.666664
 50
       0.000022
 51
       0.000000
 41
       0.919239
  1
1000
  7
DIN-6776
 72
     5
 11
    2999.214600
 21
     662.370911
  0
TEXT
  8
0
 10
    2520.714844
 20
     662.372803
 40
      66.666664
 50
       0.000030
 51
       0.000000
 41
       0.919239
  1
2000
  7
DIN-6776
 72
     5
 11
    2676.714844
 21
     662.372864
  0
TEXT
  8
0
 10
    3187.381348
 20
     862.370850
 40
      66.666664
 50
       0.000019
 51
       0.000000
 41
       0.919239
  1
Tiefe
  7
DIN-6776
 72
     5
 11
    3354.214600
 21
     862.370911
  0
TEXT
  8
0
 10
    2854.048828
 20
     862.370850
 40
      66.666664
 50
       0.000032
 51
       0.000000
 41
       0.919239
  1
Breite
  7
DIN-6776
 72
     5
 11
    3052.818848
 21
     862.370972
  0
TEXT
  8
0
 10
    2520.715820
 20
     862.372803
 40
      66.666664
 50
       0.000027
 51
       0.000000
 41
       0.919239
  1
Laenge
  7
DIN-6776
 72
     5
 11
    2763.382568
 21
     862.372925
  0
TEXT
  8
0
 10
    2187.382812
 20
     862.372803
 40
      66.666664
 50
       0.000031
 51
       0.000000
 41
       0.919239
  1
Modell
  7
DIN-6776
 72
     5
 11
    2395.382812
 21
     862.372925
  0
TEXT
  8
0
 10
    2220.634766
 20
     658.292725
 40
      66.666664
 50
       0.000029
 51
       0.000000
 41
       0.919239
  1
144
  7
DIN-6776
 72
     5
 11
    2322.468018
 21
     658.292786
  0
ENDBLK
  0
ENDSEC
  0
SECTION
  2
ENTITIES
  0
INSERT
  8
0
  6
AUSGEZOGEN
 62
     7
  2
-
 10
       0.000000
 20
       0.000000
  0
INSERT
  8
0
  6
AUSGEZOGEN
 62
     7
  2
DXF-454-00
 10
       0.000000
 20
       0.000000
  0
ENDSEC
  0
EOF
