  0
SECTION
  2
HEADER
  9
$ACADVER
  1
AC1009
  9
$ANGBASE
 50
       0.000000
  9
$ANGDIR
 70
     0
  9
$ATTDIA
 70
     0
  9
$ATTMODE
 70
     0
  9
$ATTREQ
 70
     0
  9
$AUNITS
 70
     0
  9
$AUPREC
 70
     1
  9
$BLIPMODE
 70
     1
  9
$CECOLOR
 62
   256
  9
$CELTYPE
  6
BYLAYER
  9
$CHAMFERA
 40
       0.000000
  9
$CHAMFERB
 40
       0.000000
  9
$CLAYER
  8
0
  9
$COORDS
 70
     1
  9
$DIMALT
 70
     0
  9
$DIMALTD
 70
     2
  9
$DIMALTF
 40
      25.400000
  9
$DIMAPOST
  1

  9
$DIMASO
 70
     0
  9
$DIMASZ
 40
       3.500000
  9
$DIMBLK
  1

  9
$DIMBLK1
  1

  9
$DIMBLK2
  1

  9
$DIMCEN
 40
       1.500000
  9
$DIMCLRD
 70
     0
  9
$DIMCLRE
 70
     0
  9
$DIMCLRT
 70
     0
  9
$DIMDLE
 40
       0.000000
  9
$DIMDLI
 40
       7.000000
  9
$DIMEXE
 40
       1.800000
  9
$DIMEXO
 40
       0.100000
  9
$DIMGAP
 40
       0.090000
  9
$DIMLFAC
 40
       1.000000
  9
$DIMLIM
 70
     0
  9
$DIMPOST
  1

  9
$DIMRND
 40
       0.000000
  9
$DIMSAH
 70
     0
  9
$DIMSCALE
 40
       1.000000
  9
$DIMSE1
 70
     0
  9
$DIMSE2
 70
     0
  9
$DIMSHO
 70
     1
  9
$DIMSOXD
 70
     0
  9
$DIMSTYLE
  2
*UNNAMED
  9
$DIMTAD
 70
     1
  9
$DIMTFAC
 40
       1.000000
  9
$DIMTIH
 70
     0
  9
$DIMTIX
 70
     0
  9
$DIMTM
 40
       0.000000
  9
$DIMTOFL
 70
     0
  9
$DIMTOH
 70
     0
  9
$DIMTOL
 70
     0
  9
$DIMTP
 40
       0.000000
  9
$DIMTSZ
 40
       0.000000
  9
$DIMTVP
 40
       0.000000
  9
$DIMTXT
 40
       3.500000
  9
$DIMZIN
 70
     0
  9
$DRAGMODE
 70
     2
  9
$DWGCODEPAGE
  3
dos850
  9
$ELEVATION
 40
       0.000000
  9
$EXTMAX
 10
    3124.598633
 20
    2246.187012
 30
       0.000000
  9
$EXTMIN
 10
       0.000000
 20
       0.000000
 30
       0.000000
  9
$FILLETRAD
 40
       0.000000
  9
$FILLMODE
 70
     1
  9
$HANDLING
 70
     0
  9
$HANDSEED
  5
0
  9
$INSBASE
 10
       0.000000
 20
       0.000000
 30
       0.000000
  9
$LIMCHECK
 70
     0
  9
$LIMMAX
 10
    3124.598633
 20
    2246.187012
  9
$LIMMIN
 10
       0.000000
 20
       0.000000
  9
$LTSCALE
 40
       1.000000
  9
$LUNITS
 70
     2
  9
$LUPREC
 70
     2
  9
$MAXACTVP
 70
    16
  9
$MENU
  1
ACAD
  9
$MIRRTEXT
 70
     0
  9
$ORTHOMODE
 70
     0
  9
$OSMODE
 70
     0
  9
$PDMODE
 70
     0
  9
$PDSIZE
 40
       0.000000
  9
$PELEVATION
 40
       0.000000
  9
$PEXTMAX
 10
    3124.598633
 20
    2246.187012
 30
       0.000000
  9
$PEXTMIN
 10
       0.000000
 20
       0.000000
 30
       0.000000
  9
$PINSBASE
 10
       0.000000
 20
       0.000000
 30
       0.000000
  9
$PLIMCHECK
 70
     0
  9
$PLIMMAX
 10
    3124.598633
 20
    2246.187012
  9
$PLIMMIN
 10
       0.000000
 20
       0.000000
  9
$PLINEGEN
 70
     0
  9
$PLINEWID
 40
       0.000000
  9
$PSLTSCALE
 70
     1
  9
$PUCSNAME
  2

  9
$PUCSORG
 10
       0.000000
 20
       0.000000
 30
       0.000000
  9
$PUCSXDIR
 10
       1.000000
 20
       0.000000
 30
       0.000000
  9
$PUCSYDIR
 10
       0.000000
 20
       1.000000
 30
       0.000000
  9
$QTEXTMODE
 70
     0
  9
$REGENMODE
 70
     1
  9
$SHADEDGE
 70
     3
  9
$SHADEDIF
 70
    70
  9
$SKETCHINC
 40
       1.000000
  9
$SKPOLY
 70
     0
  9
$SPLFRAME
 70
     0
  9
$SPLINESEGS
 70
     8
  9
$SPLINETYPE
 70
     6
  9
$SURFTAB1
 70
     6
  9
$SURFTAB2
 70
     6
  9
$SURFTYPE
 70
     6
  9
$SURFU
 70
     6
  9
$SURFV
 70
     6
  9
$TDCREATE
 40
2454175.4506944446
  9
$TDINDWG
 40
       0.000000
  9
$TDUPDATE
 40
2454175.4506944446
  9
$TDUSRTIMER
 40
       0.000000
  9
$TEXTSIZE
 40
       3.500000
  9
$TEXTSTYLE
  7
STANDARD
  9
$THICKNESS
 40
       0.000000
  9
$TILEMODE
 70
     1
  9
$TRACEWID
 40
       1.000000
  9
$TREEDEPTH
 70
 -3020
  9
$UCSNAME
  2

  9
$UCSORG
 10
       0.000000
 20
       0.000000
 30
       0.000000
  9
$UCSXDIR
 10
       1.000000
 20
       0.000000
 30
       0.000000
  9
$UCSYDIR
 10
       0.000000
 20
       1.000000
 30
       0.000000
  9
$UNITMODE
 70
     0
  9
$USERI1
 70
     0
  9
$USERI2
 70
     0
  9
$USERI3
 70
     0
  9
$USERI4
 70
     0
  9
$USERI5
 70
     0
  9
$USERR1
 40
       0.000000
  9
$USERR2
 40
       0.000000
  9
$USERR3
 40
       0.000000
  9
$USERR4
 40
       0.000000
  9
$USERR5
 40
       0.000000
  9
$USRTIMER
 70
     0
  9
$VISRETAIN
 70
     0
  9
$WORLDVIEW
 70
     1
  0
ENDSEC
  0
SECTION
  2
TABLES
  0
TABLE
  2
LTYPE
 70
   137
  0
LTYPE
  2
AUSGEZOGEN
 70
     0
  3
________________________________
 72
    65
 73
     2
 40
16.
 49
16.
 49
0.
  0
LTYPE
  2
VERDECKTE_KANTE
 70
     0
  3
_________________________
 72
    65
 73
     2
 40
5.
 49
3.906
 49
-1.094
  0
LTYPE
  2
HILFSLINIE
 70
     0
  3
________________________________
 72
    65
 73
     2
 40
16.
 49
16.
 49
0.
  0
LTYPE
  2
BRUCHLINIE
 70
     0
  3
________________________________
 72
    65
 73
     2
 40
16.
 49
16.
 49
0.
  0
LTYPE
  2
MITTELLINIE
 70
     0
  3
________________________   __
 72
    65
 73
     4
 40
13.
 49
9.75
 49
-1.22
 49
0.81
 49
-1.22
  0
LTYPE
  2
SCHNITTLINIE
 70
     0
  3
________________________   __
 72
    65
 73
     4
 40
13.
 49
9.75
 49
-1.22
 49
0.81
 49
-1.22
  0
LTYPE
  2
SCHWERLINIE
 70
     0
  3
_____________________  __  __
 72
    65
 73
     6
 40
15.
 49
9.84
 49
-0.94
 49
0.94
 49
-0.94
 49
0.94
 49
-1.41
  0
LTYPE
  2
ENTWURFSLINIE
 70
     0
  3
__      __      __      __
 72
    65
 73
     8
 40
16.
 49
1.
 49
-3.
 49
1.
 49
-3.
 49
1.
 49
-3.
 49
1.
 49
-3.
  0
LTYPE
  2
SONDERLINIE1
 70
     0
  3
________________________________
 72
    65
 73
     2
 40
16.
 49
16.
 49
0.
  0
LTYPE
  2
SONDERLINIE2
 70
     0
  3
________________________________
 72
    65
 73
     2
 40
15.
 49
15.
 49
0.
  0
LTYPE
  2
SONDERLINIE3
 70
     0
  3
________________________________
 72
    65
 73
     2
 40
16.
 49
16.
 49
0.
  0
LTYPE
  2
SONDERLINIE4
 70
     0
  3
________________________________
 72
    65
 73
     2
 40
16.
 49
16.
 49
0.
  0
LTYPE
  2
SONDERLINIE5
 70
     0
  3
________________________________
 72
    65
 73
     2
 40
16.
 49
16.
 49
0.
  0
LTYPE
  2
SONDERLINIE6
 70
     0
  3
________________________________
 72
    65
 73
     2
 40
16.
 49
16.
 49
0.
  0
LTYPE
  2
SONDERLINIE7
 70
     0
  3
________________________________
 72
    65
 73
     2
 40
16.
 49
16.
 49
0.
  0
LTYPE
  2
SONDERLINIE8
 70
     0
  3
________________________________
 72
    65
 73
     2
 40
16.
 49
16.
 49
0.
  0
LTYPE
  2
HEIZUNG-VORLAUF
 70
     0
  3
 
 72
    65
 73
     2
 40
16.
 49
16.
 49
0.
  0
LTYPE
  2
HEIZUNG-RUECKLAUF
 70
     0
  3
 
 72
    65
 73
     2
 40
5.
 49
4.063
 49
-0.938
  0
LTYPE
  2
TRINKWASSER-KALT
 70
     0
  3
 
 72
    65
 73
     2
 40
16.
 49
16.
 49
0.
  0
LTYPE
  2
TRINKWASSER-WARM
 70
     0
  3
 
 72
    65
 73
     2
 40
5.
 49
4.063
 49
-0.938
  0
LTYPE
  2
TRINKWASSER-ZIRKULATION
 70
     0
  3
 
 72
    65
 73
     4
 40
13.
 49
9.34
 49
-1.22
 49
1.22
 49
-1.22
  0
LTYPE
  2
SANITAER-SCHMUTZWASSER
 70
     0
  3
 
 72
    65
 73
     2
 40
16.
 49
16.
 49
0.
  0
LTYPE
  2
SANITAER-REGENWASSER
 70
     0
  3
 
 72
    65
 73
     2
 40
5.
 49
4.063
 49
-0.938
  0
LTYPE
  2
SANITAER-MISCHWASSER
 70
     0
  3
 
 72
    65
 73
     4
 40
13.
 49
9.34
 49
-1.22
 49
1.22
 49
-1.22
  0
LTYPE
  2
SANITAER-ENTLUEFTUNG
 70
     0
  3
 
 72
    65
 73
     2
 40
5.
 49
4.063
 49
-0.938
  0
LTYPE
  2
SPRINKLER
 70
     0
  3
 
 72
    65
 73
     2
 40
16.
 49
16.
 49
0.
  0
LTYPE
  2
WERKWASSER
 70
     0
  3
 
 72
    65
 73
     2
 40
16.
 49
16.
 49
0.
  0
LTYPE
  2
KUEHLWASSER-VL
 70
     0
  3
 
 72
    65
 73
     2
 40
16.
 49
16.
 49
0.
  0
LTYPE
  2
KUEHLWASSER-RL-D
 70
     0
  3
 
 72
    65
 73
     2
 40
5.
 49
4.063
 49
-0.938
  0
LTYPE
  2
KUEHLWASSER-RL-DI
 70
     0
  3
 
 72
    65
 73
     2
 40
5.
 49
4.063
 49
-0.938
  0
LTYPE
  2
KALTWASSER-KAELTEANL--VL
 70
     0
  3
 
 72
    65
 73
     2
 40
16.
 49
16.
 49
0.
  0
LTYPE
  2
KALTWASSER-KAELTEANL--RL
 70
     0
  3
 
 72
    65
 73
     2
 40
5.
 49
4.063
 49
-0.938
  0
LTYPE
  2
SCHLEIFEMULSION
 70
     0
  3
 
 72
    65
 73
     2
 40
16.
 49
16.
 49
0.
  0
LTYPE
  2
BOHREMULSION
 70
     0
  3
 
 72
    65
 73
     2
 40
16.
 49
16.
 49
0.
  0
LTYPE
  2
SCHNEIDEMULSION
 70
     0
  3
 
 72
    65
 73
     2
 40
16.
 49
16.
 49
0.
  0
LTYPE
  2
DRUCKLUFT-HAUPTNETZ
 70
     0
  3
 
 72
    65
 73
     2
 40
16.
 49
16.
 49
0.
  0
LTYPE
  2
DRUCKLUFT-HOCHDRUCKNETZ
 70
     0
  3
 
 72
    65
 73
     2
 40
16.
 49
16.
 49
0.
  0
LTYPE
  2
DRUCKLUFT-NIEDERDRUCKNETZ
 70
     0
  3
 
 72
    65
 73
     2
 40
16.
 49
16.
 49
0.
  0
LTYPE
  2
MISCHWASSER-DRUCK
 70
     0
  3
 
 72
    65
 73
     2
 40
16.
 49
16.
 49
0.
  0
LTYPE
  2
MISCHWASSER-KANAL
 70
     0
  3
 
 72
    65
 73
     2
 40
16.
 49
16.
 49
0.
  0
LTYPE
  2
OELHALTIGES-ABWASSER-DRUCK
 70
     0
  3
 
 72
    65
 73
     2
 40
16.
 49
16.
 49
0.
  0
LTYPE
  2
OELHALTIGES-ABWASSER-KANAL
 70
     0
  3
 
 72
    65
 73
     2
 40
16.
 49
16.
 49
0.
  0
LTYPE
  2
REGENWASSER-DRUCK
 70
     0
  3
 
 72
    65
 73
     2
 40
16.
 49
16.
 49
0.
  0
LTYPE
  2
REGENWASSER-KANAL
 70
     0
  3
 
 72
    65
 73
     2
 40
16.
 49
16.
 49
0.
  0
LTYPE
  2
SCHMUTZWASSER-DRUCK
 70
     0
  3
 
 72
    65
 73
     2
 40
16.
 49
16.
 49
0.
  0
LTYPE
  2
SCHMUTZWASSER-KANAL
 70
     0
  3
 
 72
    65
 73
     2
 40
16.
 49
16.
 49
0.
  0
LTYPE
  2
ALTEMULSION
 70
     0
  3
 
 72
    65
 73
     2
 40
16.
 49
16.
 49
0.
  0
LTYPE
  2
ALTWASCHWASSER
 70
     0
  3
 
 72
    65
 73
     2
 40
16.
 49
16.
 49
0.
  0
LTYPE
  2
CHROMHALTIGES-SPUELWASSER
 70
     0
  3
 
 72
    65
 73
     2
 40
16.
 49
16.
 49
0.
  0
LTYPE
  2
CYANIDHALTIGES-SPUELWASSER
 70
     0
  3
 
 72
    65
 73
     2
 40
16.
 49
16.
 49
0.
  0
LTYPE
  2
GEKLAERTES-ABWASSER
 70
     0
  3
 
 72
    65
 73
     2
 40
16.
 49
16.
 49
0.
  0
LTYPE
  2
NITRITHALTIGES-SPUELWASSER
 70
     0
  3
 
 72
    65
 73
     2
 40
16.
 49
16.
 49
0.
  0
LTYPE
  2
SAURES-ALKALISCHES-ELUAT
 70
     0
  3
 
 72
    65
 73
     2
 40
16.
 49
16.
 49
0.
  0
LTYPE
  2
SAURES-ALKALISCHES-SPUELWASSER
 70
     0
  3
 
 72
    65
 73
     2
 40
16.
 49
16.
 49
0.
  0
LTYPE
  2
AMIDASULFONSAEURE
 70
     0
  3
 
 72
    65
 73
     2
 40
16.
 49
16.
 49
0.
  0
LTYPE
  2
CHROMHALTIGES-KONZENTRAT
 70
     0
  3
 
 72
    65
 73
     2
 40
16.
 49
16.
 49
0.
  0
LTYPE
  2
CYANIDHALTIGES-KONZENTRAT
 70
     0
  3
 
 72
    65
 73
     2
 40
16.
 49
16.
 49
0.
  0
LTYPE
  2
ELEKTROLYT
 70
     0
  3
 
 72
    65
 73
     2
 40
16.
 49
16.
 49
0.
  0
LTYPE
  2
NATRIUMBISULFIT
 70
     0
  3
 
 72
    65
 73
     2
 40
16.
 49
16.
 49
0.
  0
LTYPE
  2
NATRIUMHYPOCHLORIT
 70
     0
  3
 
 72
    65
 73
     2
 40
16.
 49
16.
 49
0.
  0
LTYPE
  2
NATRONLAUGE
 70
     0
  3
 
 72
    65
 73
     2
 40
16.
 49
16.
 49
0.
  0
LTYPE
  2
NITRITHALTIGES-KONZENTRAT
 70
     0
  3
 
 72
    65
 73
     2
 40
16.
 49
16.
 49
0.
  0
LTYPE
  2
PHOSPHORSAEURE
 70
     0
  3
 
 72
    65
 73
     2
 40
16.
 49
16.
 49
0.
  0
LTYPE
  2
SALPETERSAEURE
 70
     0
  3
 
 72
    65
 73
     2
 40
16.
 49
16.
 49
0.
  0
LTYPE
  2
SALZSAEURE
 70
     0
  3
 
 72
    65
 73
     2
 40
16.
 49
16.
 49
0.
  0
LTYPE
  2
SCHWEFELSAEURE
 70
     0
  3
 
 72
    65
 73
     2
 40
16.
 49
16.
 49
0.
  0
LTYPE
  2
BETRIEBSWAERME-RL
 70
     0
  3
 
 72
    65
 73
     2
 40
5.
 49
4.063
 49
-0.938
  0
LTYPE
  2
BETRIEBSWAERME-VL
 70
     0
  3
 
 72
    65
 73
     2
 40
16.
 49
16.
 49
0.
  0
LTYPE
  2
WARMWASSER-VL
 70
     0
  3
 
 72
    65
 73
     2
 40
16.
 49
16.
 49
0.
  0
LTYPE
  2
WARMWASSER-ZIRKULATION
 70
     0
  3
 
 72
    65
 73
     4
 40
13.
 49
9.34
 49
-1.22
 49
1.22
 49
-1.22
  0
LTYPE
  2
ROHWASSER
 70
     0
  3
 
 72
    65
 73
     2
 40
16.
 49
16.
 49
0.
  0
LTYPE
  2
ARGON
 70
     0
  3
 
 72
    65
 73
     2
 40
16.
 49
16.
 49
0.
  0
LTYPE
  2
CORGON
 70
     0
  3
 
 72
    65
 73
     2
 40
16.
 49
16.
 49
0.
  0
LTYPE
  2
KOHLENDIOXID
 70
     0
  3
 
 72
    65
 73
     2
 40
16.
 49
16.
 49
0.
  0
LTYPE
  2
STICKSTOFF
 70
     0
  3
 
 72
    65
 73
     2
 40
16.
 49
16.
 49
0.
  0
LTYPE
  2
AZETYLEN
 70
     0
  3
 
 72
    65
 73
     2
 40
16.
 49
16.
 49
0.
  0
LTYPE
  2
ERDGAS
 70
     0
  3
 
 72
    65
 73
     2
 40
16.
 49
16.
 49
0.
  0
LTYPE
  2
SAUERSTOFF--TECHNISCH-REIN
 70
     0
  3
 
 72
    65
 73
     2
 40
16.
 49
16.
 49
0.
  0
LTYPE
  2
TRAEGERGAS
 70
     0
  3
 
 72
    65
 73
     2
 40
16.
 49
16.
 49
0.
  0
LTYPE
  2
WASSERSTOFF
 70
     0
  3
 
 72
    65
 73
     2
 40
16.
 49
16.
 49
0.
  0
LTYPE
  2
KRAFTSTOFF-GK-A-I-D
 70
     0
  3
 
 72
    65
 73
     2
 40
16.
 49
16.
 49
0.
  0
LTYPE
  2
KRAFTSTOFF-SONDER-D
 70
     0
  3
 
 72
    65
 73
     2
 40
16.
 49
16.
 49
0.
  0
LTYPE
  2
ACHSOEL
 70
     0
  3
 
 72
    65
 73
     2
 40
16.
 49
16.
 49
0.
  0
LTYPE
  2
ALTOEL
 70
     0
  3
 
 72
    65
 73
     2
 40
16.
 49
16.
 49
0.
  0
LTYPE
  2
BOHROEL
 70
     0
  3
 
 72
    65
 73
     2
 40
16.
 49
16.
 49
0.
  0
LTYPE
  2
ERODIEROEL
 70
     0
  3
 
 72
    65
 73
     2
 40
16.
 49
16.
 49
0.
  0
LTYPE
  2
FETT
 70
     0
  3
 
 72
    65
 73
     2
 40
16.
 49
16.
 49
0.
  0
LTYPE
  2
GETRIEBEOEL
 70
     0
  3
 
 72
    65
 73
     2
 40
16.
 49
16.
 49
0.
  0
LTYPE
  2
HAERTEOEL
 70
     0
  3
 
 72
    65
 73
     2
 40
16.
 49
16.
 49
0.
  0
LTYPE
  2
HONOEL
 70
     0
  3
 
 72
    65
 73
     2
 40
16.
 49
16.
 49
0.
  0
LTYPE
  2
HYDRAULIKOEL
 70
     0
  3
 
 72
    65
 73
     2
 40
16.
 49
16.
 49
0.
  0
LTYPE
  2
MOTOROEL
 70
     0
  3
 
 72
    65
 73
     2
 40
16.
 49
16.
 49
0.
  0
LTYPE
  2
NORMALSPUELOEL
 70
     0
  3
 
 72
    65
 73
     2
 40
16.
 49
16.
 49
0.
  0
LTYPE
  2
RAEUMOEL
 70
     0
  3
 
 72
    65
 73
     2
 40
16.
 49
16.
 49
0.
  0
LTYPE
  2
SCHLEIFOEL
 70
     0
  3
 
 72
    65
 73
     2
 40
16.
 49
16.
 49
0.
  0
LTYPE
  2
SCHNEIDOEL
 70
     0
  3
 
 72
    65
 73
     2
 40
16.
 49
16.
 49
0.
  0
LTYPE
  2
SONDERSPUELOEL
 70
     0
  3
 
 72
    65
 73
     2
 40
16.
 49
16.
 49
0.
  0
LTYPE
  2
ZIEHOEL
 70
     0
  3
 
 72
    65
 73
     2
 40
16.
 49
16.
 49
0.
  0
LTYPE
  2
MONTAGEOEL
 70
     0
  3
 
 72
    65
 73
     2
 40
16.
 49
16.
 49
0.
  0
LTYPE
  2
MONTAGE-GLEITOEL
 70
     0
  3
 
 72
    65
 73
     2
 40
16.
 49
16.
 49
0.
  0
LTYPE
  2
SPUELOEL
 70
     0
  3
 
 72
    65
 73
     2
 40
16.
 49
16.
 49
0.
  0
LTYPE
  2
TIEFBOHROEL
 70
     0
  3
 
 72
    65
 73
     2
 40
16.
 49
16.
 49
0.
  0
LTYPE
  2
AMIN
 70
     0
  3
 
 72
    65
 73
     2
 40
16.
 49
16.
 49
0.
  0
LTYPE
  2
HAERTER
 70
     0
  3
 
 72
    65
 73
     2
 40
16.
 49
16.
 49
0.
  0
LTYPE
  2
HARZ
 70
     0
  3
 
 72
    65
 73
     2
 40
16.
 49
16.
 49
0.
  0
LTYPE
  2
LOESEMITTEL
 70
     0
  3
 
 72
    65
 73
     2
 40
16.
 49
16.
 49
0.
  0
LTYPE
  2
LACK
 70
     0
  3
 
 72
    65
 73
     2
 40
16.
 49
16.
 49
0.
  0
LTYPE
  2
WASCHWASSER
 70
     0
  3
 
 72
    65
 73
     2
 40
16.
 49
16.
 49
0.
  0
LTYPE
  2
GLEITSCHLEIFWASSER
 70
     0
  3
 
 72
    65
 73
     2
 40
16.
 49
16.
 49
0.
  0
LTYPE
  2
VERDUENNUNG
 70
     0
  3
 
 72
    65
 73
     2
 40
16.
 49
16.
 49
0.
  0
LTYPE
  2
KUEHLDECKEN-VORLAUF
 70
     0
  3
 
 72
    65
 73
     2
 40
16.
 49
16.
 49
0.
  0
LTYPE
  2
KUEHLDECKEN-RUECKLAUF
 70
     0
  3
 
 72
    65
 73
     2
 40
5.
 49
4.063
 49
-0.938
  0
LTYPE
  2
KONDENSAT
 70
     0
  3
 
 72
    65
 73
     2
 40
16.
 49
16.
 49
0.
  0
LTYPE
  2
KONDENSAT-REINDAMPF
 70
     0
  3
 
 72
    65
 73
     2
 40
16.
 49
16.
 49
0.
  0
LTYPE
  2
KONDENSAT-HOCHDRUCK
 70
     0
  3
 
 72
    65
 73
     2
 40
16.
 49
16.
 49
0.
  0
LTYPE
  2
DAMPF
 70
     0
  3
 
 72
    65
 73
     2
 40
16.
 49
16.
 49
0.
  0
LTYPE
  2
REINDAMPF
 70
     0
  3
 
 72
    65
 73
     2
 40
16.
 49
16.
 49
0.
  0
LTYPE
  2
DAMPF-HOCHDRUCK
 70
     0
  3
 
 72
    65
 73
     2
 40
16.
 49
16.
 49
0.
  0
LTYPE
  2
KLIMA-ZENTRALE
 70
     0
  3
 
 72
    65
 73
     2
 40
16.
 49
16.
 49
0.
  0
LTYPE
  2
KLIMA-AUSSENLUFT
 70
     0
  3
 
 72
    65
 73
     4
 40
13.
 49
9.34
 49
-1.22
 49
1.22
 49
-1.22
  0
LTYPE
  2
KLIMA-ZULUFT-I
 70
     0
  3
 
 72
    65
 73
     2
 40
16.
 49
16.
 49
0.
  0
LTYPE
  2
KLIMA-ZULUFT-II
 70
     0
  3
 
 72
    65
 73
     2
 40
16.
 49
16.
 49
0.
  0
LTYPE
  2
KLIMA-ZULUFT-III
 70
     0
  3
 
 72
    65
 73
     2
 40
16.
 49
16.
 49
0.
  0
LTYPE
  2
KLIMA-ZULUFT-IV
 70
     0
  3
 
 72
    65
 73
     2
 40
16.
 49
16.
 49
0.
  0
LTYPE
  2
KLIMA-UMLUFT
 70
     0
  3
 
 72
    65
 73
     2
 40
5.
 49
4.063
 49
-0.938
  0
LTYPE
  2
KLIMA-MISCHLUFT
 70
     0
  3
 
 72
    65
 73
     6
 40
11.
 49
3.78
 49
-1.03
 49
3.78
 49
-1.03
 49
0.34
 49
-1.03
  0
LTYPE
  2
KLIMA-ABLUFT
 70
     0
  3
 
 72
    65
 73
     2
 40
5.
 49
4.063
 49
-0.938
  0
LTYPE
  2
KLIMA-FORTLUFT
 70
     0
  3
 
 72
    65
 73
     2
 40
5.
 49
4.063
 49
-0.938
  0
LTYPE
  2
ENTRAUCHUNG
 70
     0
  3
 
 72
    65
 73
     2
 40
5.
 49
4.063
 49
-0.938
  0
LTYPE
  2
ELEKTRO-ZENTRALE
 70
     0
  3
 
 72
    65
 73
     2
 40
16.
 49
16.
 49
0.
  0
LTYPE
  2
STROMSCHIENEN
 70
     0
  3
 
 72
    65
 73
     2
 40
16.
 49
16.
 49
0.
  0
LTYPE
  2
ELEKTRO-LEITUNGSFUEHRUNG
 70
     0
  3
 
 72
    65
 73
     2
 40
16.
 49
16.
 49
0.
  0
LTYPE
  2
ELEKTRO-KABELTRAEGER
 70
     0
  3
 
 72
    65
 73
     2
 40
16.
 49
16.
 49
0.
  0
LTYPE
  2
INNENWAND
 70
     0
  3
 
 72
    65
 73
     2
 40
16.
 49
16.
 49
0.
  0
LTYPE
  2
AUSSENWAND
 70
     0
  3
 
 72
    65
 73
     2
 40
16.
 49
16.
 49
0.
  0
LTYPE
  2
ERDBERUEHREND
 70
     0
  3
 
 72
    65
 73
     2
 40
16.
 49
16.
 49
0.
  0
LTYPE
  2
REINWASSER
 70
     0
  3
 
 72
    65
 73
     2
 40
16.
 49
16.
 49
0.
  0
ENDTAB
  0
TABLE
  2
LAYER
 70
     1
  0
LAYER
  2
0
 62
     7
  6
AUSGEZOGEN
 70
    64
  0
ENDTAB
  0
TABLE
  2
STYLE
 70
    23
  0
STYLE
  2
STANDARD
 70
     0
 40
     0
 41
       1.000000
 50
       0.000000
 71
     0
 42
       3.500000
  3
isocp
  4

  0
STYLE
  2
DIN-6776
 70
     0
 40
     0
 41
       1.000000
 50
       0.000000
 71
     0
 42
       3.500000
  3
isocp
  4

  0
STYLE
  2
ROMAN
 70
     0
 40
     0
 41
       1.000000
 50
       0.000000
 71
     0
 42
       3.500000
  3
romans.shx
  4

  0
STYLE
  2
SCRIPT
 70
     0
 40
     0
 41
       1.000000
 50
       0.000000
 71
     0
 42
       3.500000
  3
scripts.shx
  4

  0
STYLE
  2
GRIECHISCH
 70
     0
 40
     0
 41
       1.000000
 50
       0.000000
 71
     0
 42
       3.500000
  3
greeks.shx
  4

  0
STYLE
  2
KYRILLISCH
 70
     0
 40
     0
 41
       1.000000
 50
       0.000000
 71
     0
 42
       3.500000
  3
cyrillic.shx
  4

  0
STYLE
  2
MATH--FORMELZEICHEN
 70
     0
 40
     0
 41
       1.000000
 50
       0.000000
 71
     0
 42
       3.500000
  3
symath.shx
  4

  0
STYLE
  2
DOPPELLINIE
 70
     0
 40
     0
 41
       1.000000
 50
       0.000000
 71
     0
 42
       3.500000
  3
swissko.ttf
  4

  0
STYLE
  2
SERIFENSCHRIFT
 70
     0
 40
     0
 41
       1.000000
 50
       0.000000
 71
     0
 42
       3.500000
  3
romanc__.ttf
  4

  0
STYLE
  2
ARIAL
 70
     0
 40
     0
 41
       1.000000
 50
       0.000000
 71
     0
 42
       3.500000
  3
arial.ttf
  4

  0
STYLE
  2
ARIAL-FETT
 70
     0
 40
     0
 41
       1.000000
 50
       0.000000
 71
     0
 42
       3.500000
  3
arialbd.ttf
  4

  0
STYLE
  2
TIMES-NEW-ROMAN
 70
     0
 40
     0
 41
       1.000000
 50
       0.000000
 71
     0
 42
       3.500000
  3
times.ttf
  4

  0
STYLE
  2
TIMES-NEW-ROMAN-FETT
 70
     0
 40
     0
 41
       1.000000
 50
       0.000000
 71
     0
 42
       3.500000
  3
timesbd.ttf
  4

  0
STYLE
  2
DIN-6776-OSTEUROPA
 70
     0
 40
     0
 41
       1.000000
 50
       0.000000
 71
     0
 42
       3.500000
  3
txt
  4

  0
STYLE
  2
DIN-6776-KYRILLISCH
 70
     0
 40
     0
 41
       1.000000
 50
       0.000000
 71
     0
 42
       3.500000
  3
txt
  4

  0
STYLE
  2
ARIAL-OSTEUROPA
 70
     0
 40
     0
 41
       1.000000
 50
       0.000000
 71
     0
 42
       3.500000
  3
arial.ttf
  4

  0
STYLE
  2
ARIAL-KYRILLISCH
 70
     0
 40
     0
 41
       1.000000
 50
       0.000000
 71
     0
 42
       3.500000
  3
arial.ttf
  4

  0
STYLE
  2
ARIAL-FETT-OSTEUROPA
 70
     0
 40
     0
 41
       1.000000
 50
       0.000000
 71
     0
 42
       3.500000
  3
arialbd.ttf
  4

  0
STYLE
  2
ARIAL-FETT-KYRILLISCH
 70
     0
 40
     0
 41
       1.000000
 50
       0.000000
 71
     0
 42
       3.500000
  3
arialbd.ttf
  4

  0
STYLE
  2
TIMES-N-R-OSTEUROPA
 70
     0
 40
     0
 41
       1.000000
 50
       0.000000
 71
     0
 42
       3.500000
  3
times.ttf
  4

  0
STYLE
  2
TIMES-N-R-KYRILLISCH
 70
     0
 40
     0
 41
       1.000000
 50
       0.000000
 71
     0
 42
       3.500000
  3
times.ttf
  4

  0
STYLE
  2
TIMES-N-R-FETT-OSTEUROPA
 70
     0
 40
     0
 41
       1.000000
 50
       0.000000
 71
     0
 42
       3.500000
  3
timesbd.ttf
  4

  0
STYLE
  2
TIMES-N-R-FETT-KYRILLISCH
 70
     0
 40
     0
 41
       1.000000
 50
       0.000000
 71
     0
 42
       3.500000
  3
timesbd.ttf
  4

  0
ENDTAB
  0
TABLE
  2
VIEW
 70
     0
  0
ENDTAB
  0
TABLE
  2
VPORT
 70
     2
  0
VPORT
  2
*ACTIVE
 70
     0
 10
       0.000000
 20
       0.000000
 11
       1.000000
 21
       1.000000
 12
    1562.299316
 22
    1123.093506
 13
       0.000000
 23
       0.000000
 14
       1.000000
 24
       1.000000
 15
       0.000000
 25
       0.000000
 16
       0.000000
 26
       0.000000
 36
       1.000000
 17
       0.000000
 27
       0.000000
 37
       0.000000
 40
    2246.187012
 41
       1.391068
 42
      50.000000
 43
       0.000000
 44
       0.000000
 50
       0.000000
 51
       0.000000
 71
     0
 72
   100
 73
     1
 74
     1
 75
     0
 76
     0
 77
     0
 78
     0
  0
ENDTAB
  0
TABLE
  2
DIMSTYLE
 70
     1
  0
DIMSTYLE
  2
STDBEM
 70
     0
  3

  4

  5

  6

  7

 40
       1.000000
 41
       3.500000
 42
       0.100000
 43
       7.000000
 44
       1.800000
 45
       0.000000
 46
       0.000000
 47
       0.000000
 48
       0.000000
140
       3.500000
141
       1.500000
142
       0.000000
143
      25.400000
144
       1.000000
145
       0.000000
146
       1.000000
147
       0.090000
 71
     0
 72
     0
 73
     0
 74
     0
 75
     0
 76
     0
 77
     1
 78
     0
170
     0
171
     2
172
     0
173
     0
174
     0
175
     0
176
     0
177
     0
178
     0
  0
ENDTAB
  0
ENDSEC
  0
SECTION
  2
BLOCKS
  0
ENDSEC
  0
SECTION
  2
ENTITIES
  0
CIRCLE
  8
0
  6
VERDECKTE_KANTE
 62
     8
 10
    2480.629639
 20
    1881.093262
 40
      26.000000
  0
LINE
  8
0
  6
HILFSLINIE
 62
     8
 10
     246.933350
 20
    1901.793335
 11
    1355.080811
 21
    1901.793335
  0
LINE
  8
0
  6
HILFSLINIE
 62
     8
 10
    1130.633545
 20
     773.093506
 11
     553.841064
 21
     773.093506
  0
LINE
  8
0
  6
HILFSLINIE
 62
     8
 10
    1130.633545
 20
     523.093506
 11
     553.841064
 21
     523.093506
  0
LINE
  8
0
  6
HILFSLINIE
 62
     8
 10
    3093.965576
 20
     648.094849
 11
    1867.298096
 21
     648.092163
  0
ARC
  8
0
  6
HILFSLINIE
 62
     8
 10
    2502.383301
 20
     921.740234
 40
    1000.000000
 50
      76.960709
 51
      83.908249
  0
ARC
  8
0
  6
HILFSLINIE
 62
     8
 10
    2458.879395
 20
     921.740234
 40
    1000.000000
 50
      96.091965
 51
     103.039513
  0
ARC
  8
0
  6
HILFSLINIE
 62
     8
 10
    1130.187256
 20
     648.093506
 40
     640.000000
 50
     173.565399
 51
     186.434586
  0
ARC
  8
0
  6
HILFSLINIE
 62
     8
 10
    1130.633545
 20
     648.093506
 40
     125.000000
 50
     270.000000
 51
      90.000000
  0
ARC
  8
0
  6
HILFSLINIE
 62
     8
 10
     553.841064
 20
     713.093506
 40
      60.000000
 50
      90.000000
 51
     173.565414
  0
ARC
  8
0
  6
HILFSLINIE
 62
     8
 10
     553.841064
 20
     583.093506
 40
      60.000000
 50
     186.434570
 51
     270.000000
  0
LINE
  8
0
  6
MITTELLINIE
 62
     8
 10
     780.633545
 20
    1948.093384
 11
     780.633545
 21
    1556.352295
  0
LINE
  8
0
  6
MITTELLINIE
 62
     8
 10
    2480.629395
 20
    1948.093262
 11
    2480.630127
 21
    1531.093262
  0
LINE
  8
0
  6
MITTELLINIE
 62
     8
 10
     780.633545
 20
     998.093506
 11
     780.633545
 21
     298.093384
  0
LINE
  8
0
  6
MITTELLINIE
 62
     8
 10
    1530.633545
 20
     648.093506
 11
      30.633545
 21
     648.093506
  0
LINE
  8
0
  6
MITTELLINIE
 62
     8
 10
    1220.633545
 20
    1948.093384
 11
    1220.633545
 21
    1531.093384
  0
LINE
  8
0
 10
      30.633545
 20
    1942.093384
 11
      30.633545
 21
    1922.093384
  0
LINE
  8
0
 10
    1530.633545
 20
    1942.093384
 11
    1530.633545
 21
    1922.093384
  0
LINE
  8
0
 10
      36.633545
 20
    1948.093384
 11
    1524.633545
 21
    1948.093384
  0
LINE
  8
0
 10
      36.633545
 20
    1916.093384
 11
    1524.633545
 21
    1916.093384
  0
LINE
  8
0
 10
    1516.633545
 20
    1916.093384
 11
    1524.633545
 21
    1916.093384
  0
LINE
  8
0
 10
    1194.012939
 20
    1531.093384
 11
    1247.254150
 21
    1531.093384
  0
LINE
  8
0
 10
     490.108643
 20
    1563.959839
 11
    1174.952393
 21
    1546.026733
  0
LINE
  8
0
 10
    2824.629395
 20
    1948.093994
 11
    2136.629395
 21
    1948.092651
  0
LINE
  8
0
 10
    2830.629395
 20
    1922.093994
 11
    2830.629395
 21
    1942.093994
  0
LINE
  8
0
 10
    2824.629395
 20
    1916.093994
 11
    2136.629395
 21
    1916.092651
  0
LINE
  8
0
 10
    2130.629395
 20
    1922.092651
 11
    2130.629395
 21
    1942.092651
  0
LINE
  8
0
 10
      30.633545
 20
     975.093506
 11
      30.633545
 21
     321.093506
  0
LINE
  8
0
 10
    1530.633545
 20
     321.093628
 11
    1530.633545
 21
     975.093506
  0
LINE
  8
0
 10
    1507.633545
 20
     998.093506
 11
      53.633545
 21
     998.093506
  0
LINE
  8
0
 10
    1507.633545
 20
     298.093384
 11
      53.633545
 21
     298.093506
  0
LINE
  8
0
 10
    2506.976807
 20
    1531.093262
 11
    2454.283447
 21
    1531.093262
  0
LINE
  8
0
 10
    1174.952393
 20
    1546.026733
 11
    1265.814697
 21
    1547.339355
  0
LINE
  8
0
 10
    2436.827393
 20
    1545.572266
 11
    2524.432861
 21
    1545.575195
  0
ARC
  8
0
 10
      36.633545
 20
    1942.093384
 40
       6.000000
 50
      90.000000
 51
     180.000000
  0
ARC
  8
0
 10
      36.633545
 20
    1922.093384
 40
       6.000000
 50
     180.000000
 51
     270.000000
  0
ARC
  8
0
 10
    1524.633545
 20
    1942.093384
 40
       6.000000
 50
       0.000000
 51
      90.000000
  0
ARC
  8
0
 10
    1524.633545
 20
    1922.093384
 40
       6.000000
 50
     270.000000
 51
       0.000000
  0
ARC
  8
0
 10
    1247.254150
 20
    1540.093384
 40
       9.000000
 50
     270.000000
 51
     349.340240
  0
ARC
  8
0
 10
    1266.908936
 20
    1536.393799
 40
      11.000000
 50
      95.708946
 51
     169.339874
  0
ARC
  8
0
 10
    1194.012939
 20
    1540.093384
 40
       9.000000
 50
     194.664246
 51
     270.000000
  0
ARC
  8
0
 10
    1174.664307
 20
    1535.030518
 40
      11.000000
 50
      14.662978
 51
      88.499268
  0
ARC
  8
0
 10
   -2560.163330
 20
    2113.320312
 40
    4003.000000
 50
     355.898193
 51
     357.175903
  0
ARC
  8
0
 10
     930.870850
 20
    1862.969849
 40
     503.000000
 50
     348.772827
 51
     355.898193
  0
ARC
  8
0
 10
     244.266846
 20
    1999.258911
 40
    1203.000000
 50
     343.416748
 51
     348.772858
  0
ARC
  8
0
 10
     496.731689
 20
    1816.873169
 40
     253.000076
 50
     220.824966
 51
     268.499908
  0
ARC
  8
0
 10
    1442.619385
 20
    2634.061279
 40
    1502.999878
 50
     209.259399
 51
     220.824966
  0
ARC
  8
0
 10
      55.478271
 20
    1856.925781
 40
      87.000046
 50
      29.259378
 51
      42.850609
  0
ARC
  8
0
 10
    1250.593506
 20
    1699.580200
 40
     152.999985
 50
     275.709503
 51
     343.416748
  0
ARC
  8
0
 10
    2136.629395
 20
    1942.092651
 40
       6.000000
 50
      90.000000
 51
     180.000000
  0
ARC
  8
0
 10
    2136.629395
 20
    1922.092651
 40
       6.000000
 50
     180.000000
 51
     270.000000
  0
ARC
  8
0
 10
    2215.770508
 20
    1897.590210
 40
       3.000006
 50
     183.538818
 51
     185.016479
  0
ARC
  8
0
 10
    3411.179199
 20
    2002.463379
 40
    1203.000122
 50
     184.703766
 51
     198.959854
  0
ARC
  8
0
 10
    2361.400391
 20
    1641.818115
 40
      92.999924
 50
     198.959915
 51
     266.323975
  0
ARC
  8
0
 10
    2480.626465
 20
    3548.093262
 40
    2002.999878
 50
     266.416626
 51
     268.747009
  0
ARC
  8
0
 10
    2599.859375
 20
    1641.818481
 40
      93.000023
 50
     273.673004
 51
     341.040314
  0
ARC
  8
0
 10
    1550.079834
 20
    2002.459839
 40
    1203.000244
 50
     341.040344
 51
     355.296448
  0
ARC
  8
0
 10
    2506.976807
 20
    1540.093262
 40
       9.000000
 50
     270.000000
 51
     348.727539
  0
ARC
  8
0
 10
    2524.630127
 20
    1536.577393
 40
       9.000000
 50
      91.255936
 51
     168.744934
  0
ARC
  8
0
 10
    2454.283447
 20
    1540.093262
 40
       9.000000
 50
     191.273193
 51
     270.000000
  0
ARC
  8
0
 10
    2436.630127
 20
    1536.577271
 40
       9.000000
 50
      11.255065
 51
      88.744057
  0
ARC
  8
0
 10
    2480.626465
 20
    3548.093262
 40
    2002.999878
 50
     271.253174
 51
     273.583405
  0
ARC
  8
0
 10
    2824.629395
 20
    1942.093994
 40
       6.000000
 50
       0.000000
 51
      90.000000
  0
ARC
  8
0
 10
    2824.629395
 20
    1922.093994
 40
       6.000000
 50
     270.000000
 51
       0.000000
  0
ARC
  8
0
 10
      53.633545
 20
     975.093506
 40
      23.000000
 50
      90.000000
 51
     180.000000
  0
ARC
  8
0
 10
    1507.633545
 20
     975.093506
 40
      23.000000
 50
       0.000000
 51
      90.000000
  0
ARC
  8
0
 10
    1085.633545
 20
     648.093506
 40
     980.000000
 50
     169.291687
 51
     190.712570
  0
ARC
  8
0
 10
     250.447021
 20
     806.093506
 40
     130.000000
 50
      90.000000
 51
     169.319580
  0
ARC
  8
0
 10
      53.633545
 20
     321.093506
 40
      23.000000
 50
     180.000000
 51
     270.000000
  0
ARC
  8
0
 10
    1507.633545
 20
     321.093384
 40
      23.000000
 50
     270.000000
 51
       0.000608
  0
ARC
  8
0
 10
     250.447021
 20
     490.093506
 40
     130.000000
 50
     190.712616
 51
     270.000000
  0
ARC
  8
0
 10
     300.410889
 20
  -24063.855469
 40
   25000.000000
 50
      87.833252
 51
      90.114510
  0
ARC
  8
0
 10
     300.411865
 20
   25360.042969
 40
   25000.000000
 50
     269.885498
 51
     272.166748
  0
ARC
  8
0
 10
    1186.123779
 20
     605.856079
 40
     250.000000
 50
     329.971771
 51
     358.617004
  0
ARC
  8
0
 10
    1186.123779
 20
     690.330811
 40
     250.000000
 50
       1.382982
 51
      30.028225
  0
ARC
  8
0
 10
    -563.366455
 20
     648.093506
 40
    2000.000000
 50
     358.617004
 51
       1.383000
  0
POLYLINE
  8
0
 66
     1
 10
       0.000000
 20
       0.000000
 30
       0.000000
  0
VERTEX
  8
0
 10
    2209.190918
 20
    1916.092773
 30
       0.000000
  0
VERTEX
  8
0
 10
    2210.624268
 20
    1911.805786
 30
       0.000000
  0
VERTEX
  8
0
 10
    2211.775391
 20
    1906.925049
 30
       0.000000
  0
VERTEX
  8
0
 10
    2212.230469
 20
    1903.812622
 30
       0.000000
  0
SEQEND
  8
0
  0
POLYLINE
  8
0
 66
     1
 10
       0.000000
 20
       0.000000
 30
       0.000000
  0
VERTEX
  8
0
 10
    2749.028320
 20
    1903.814087
 30
       0.000000
  0
VERTEX
  8
0
 10
    2749.483398
 20
    1906.926025
 30
       0.000000
  0
VERTEX
  8
0
 10
    2750.634521
 20
    1911.806885
 30
       0.000000
  0
VERTEX
  8
0
 10
    2752.067871
 20
    1916.093750
 30
       0.000000
  0
SEQEND
  8
0
  0
POLYLINE
  8
0
 66
     1
 10
       0.000000
 20
       0.000000
 30
       0.000000
  0
VERTEX
  8
0
 10
    1403.586182
 20
     482.410034
 30
       0.000000
  0
VERTEX
  8
0
 10
    1395.585693
 20
     469.356079
 30
       0.000000
  0
VERTEX
  8
0
 10
    1386.647705
 20
     456.536987
 30
       0.000000
  0
VERTEX
  8
0
 10
    1376.721924
 20
     444.075317
 30
       0.000000
  0
VERTEX
  8
0
 10
    1365.772217
 20
     432.119751
 30
       0.000000
  0
VERTEX
  8
0
 10
    1353.778564
 20
     420.844482
 30
       0.000000
  0
VERTEX
  8
0
 10
    1340.747803
 20
     410.444946
 30
       0.000000
  0
VERTEX
  8
0
 10
    1326.717041
 20
     401.132935
 30
       0.000000
  0
VERTEX
  8
0
 10
    1311.762451
 20
     393.126099
 30
       0.000000
  0
VERTEX
  8
0
 10
    1295.999756
 20
     386.634399
 30
       0.000000
  0
VERTEX
  8
0
 10
    1279.585693
 20
     381.845581
 30
       0.000000
  0
VERTEX
  8
0
 10
    1262.714600
 20
     378.908081
 30
       0.000000
  0
VERTEX
  8
0
 10
    1245.607178
 20
     377.917847
 30
       0.000000
  0
SEQEND
  8
0
  0
POLYLINE
  8
0
 66
     1
 10
       0.000000
 20
       0.000000
 30
       0.000000
  0
VERTEX
  8
0
 10
    1395.846924
 20
     469.781860
 30
       0.000000
  0
VERTEX
  8
0
 10
    1395.585693
 20
     469.356079
 30
       0.000000
  0
VERTEX
  8
0
 10
    1386.647705
 20
     456.536987
 30
       0.000000
  0
VERTEX
  8
0
 10
    1376.721924
 20
     444.075317
 30
       0.000000
  0
VERTEX
  8
0
 10
    1365.772217
 20
     432.119751
 30
       0.000000
  0
VERTEX
  8
0
 10
    1353.778564
 20
     420.844482
 30
       0.000000
  0
VERTEX
  8
0
 10
    1340.747803
 20
     410.444946
 30
       0.000000
  0
VERTEX
  8
0
 10
    1326.717041
 20
     401.132935
 30
       0.000000
  0
VERTEX
  8
0
 10
    1311.762451
 20
     393.126099
 30
       0.000000
  0
VERTEX
  8
0
 10
    1295.999756
 20
     386.634399
 30
       0.000000
  0
VERTEX
  8
0
 10
    1279.585693
 20
     381.845581
 30
       0.000000
  0
VERTEX
  8
0
 10
    1262.714600
 20
     378.908081
 30
       0.000000
  0
VERTEX
  8
0
 10
    1245.607178
 20
     377.917847
 30
       0.000000
  0
SEQEND
  8
0
  0
POLYLINE
  8
0
 66
     1
 10
       0.000000
 20
       0.000000
 30
       0.000000
  0
VERTEX
  8
0
 10
    1403.586182
 20
     813.776855
 30
       0.000000
  0
VERTEX
  8
0
 10
    1395.585693
 20
     826.830811
 30
       0.000000
  0
VERTEX
  8
0
 10
    1386.647705
 20
     839.650024
 30
       0.000000
  0
VERTEX
  8
0
 10
    1376.721924
 20
     852.111694
 30
       0.000000
  0
VERTEX
  8
0
 10
    1365.772217
 20
     864.067139
 30
       0.000000
  0
VERTEX
  8
0
 10
    1353.778564
 20
     875.342407
 30
       0.000000
  0
VERTEX
  8
0
 10
    1340.747803
 20
     885.741943
 30
       0.000000
  0
VERTEX
  8
0
 10
    1326.717041
 20
     895.053955
 30
       0.000000
  0
VERTEX
  8
0
 10
    1311.762451
 20
     903.060913
 30
       0.000000
  0
VERTEX
  8
0
 10
    1295.999756
 20
     909.552490
 30
       0.000000
  0
VERTEX
  8
0
 10
    1279.585693
 20
     914.341431
 30
       0.000000
  0
VERTEX
  8
0
 10
    1262.714600
 20
     917.278931
 30
       0.000000
  0
VERTEX
  8
0
 10
    1245.607178
 20
     918.269043
 30
       0.000000
  0
SEQEND
  8
0
  0
POLYLINE
  8
0
 66
     1
 10
       0.000000
 20
       0.000000
 30
       0.000000
  0
VERTEX
  8
0
 10
    1404.180420
 20
     628.232056
 30
       0.000000
  0
VERTEX
  8
0
 10
    1405.081299
 20
     626.469116
 30
       0.000000
  0
VERTEX
  8
0
 10
    1406.190186
 20
     624.801025
 30
       0.000000
  0
VERTEX
  8
0
 10
    1407.512939
 20
     623.391846
 30
       0.000000
  0
VERTEX
  8
0
 10
    1409.019287
 20
     622.434448
 30
       0.000000
  0
VERTEX
  8
0
 10
    1410.633545
 20
     622.093506
 30
       0.000000
  0
SEQEND
  8
0
  0
POLYLINE
  8
0
 66
     1
 10
       0.000000
 20
       0.000000
 30
       0.000000
  0
VERTEX
  8
0
 10
    1410.633545
 20
     622.093506
 30
       0.000000
  0
VERTEX
  8
0
 10
    1412.247803
 20
     622.434570
 30
       0.000000
  0
VERTEX
  8
0
 10
    1413.754150
 20
     623.391846
 30
       0.000000
  0
VERTEX
  8
0
 10
    1415.076904
 20
     624.801025
 30
       0.000000
  0
VERTEX
  8
0
 10
    1416.185791
 20
     626.469238
 30
       0.000000
  0
VERTEX
  8
0
 10
    1417.086670
 20
     628.232178
 30
       0.000000
  0
VERTEX
  8
0
 10
    1417.806396
 20
     629.977051
 30
       0.000000
  0
VERTEX
  8
0
 10
    1418.376221
 20
     631.639404
 30
       0.000000
  0
VERTEX
  8
0
 10
    1418.827393
 20
     633.188965
 30
       0.000000
  0
VERTEX
  8
0
 10
    1419.185303
 20
     634.617676
 30
       0.000000
  0
VERTEX
  8
0
 10
    1419.471436
 20
     635.929077
 30
       0.000000
  0
VERTEX
  8
0
 10
    1419.701416
 20
     637.132324
 30
       0.000000
  0
VERTEX
  8
0
 10
    1420.264404
 20
     641.096191
 30
       0.000000
  0
VERTEX
  8
0
 10
    1420.585205
 20
     645.538330
 30
       0.000000
  0
VERTEX
  8
0
 10
    1420.519775
 20
     652.007690
 30
       0.000000
  0
VERTEX
  8
0
 10
    1419.701416
 20
     659.054688
 30
       0.000000
  0
VERTEX
  8
0
 10
    1419.471436
 20
     660.257935
 30
       0.000000
  0
VERTEX
  8
0
 10
    1419.185303
 20
     661.569336
 30
       0.000000
  0
VERTEX
  8
0
 10
    1418.827393
 20
     662.998047
 30
       0.000000
  0
VERTEX
  8
0
 10
    1418.376221
 20
     664.547729
 30
       0.000000
  0
VERTEX
  8
0
 10
    1417.806396
 20
     666.209961
 30
       0.000000
  0
VERTEX
  8
0
 10
    1417.086670
 20
     667.954956
 30
       0.000000
  0
VERTEX
  8
0
 10
    1416.185791
 20
     669.717896
 30
       0.000000
  0
VERTEX
  8
0
 10
    1415.076904
 20
     671.385986
 30
       0.000000
  0
VERTEX
  8
0
 10
    1413.754150
 20
     672.795166
 30
       0.000000
  0
VERTEX
  8
0
 10
    1412.247803
 20
     673.752441
 30
       0.000000
  0
VERTEX
  8
0
 10
    1410.633545
 20
     674.093506
 30
       0.000000
  0
VERTEX
  8
0
 10
    1409.019287
 20
     673.752441
 30
       0.000000
  0
VERTEX
  8
0
 10
    1407.512939
 20
     672.795166
 30
       0.000000
  0
VERTEX
  8
0
 10
    1406.190186
 20
     671.385986
 30
       0.000000
  0
VERTEX
  8
0
 10
    1405.081299
 20
     669.717773
 30
       0.000000
  0
VERTEX
  8
0
 10
    1404.179932
 20
     667.954834
 30
       0.000000
  0
VERTEX
  8
0
 10
    1403.460693
 20
     666.209839
 30
       0.000000
  0
VERTEX
  8
0
 10
    1402.890869
 20
     664.547607
 30
       0.000000
  0
VERTEX
  8
0
 10
    1402.439697
 20
     662.997925
 30
       0.000000
  0
VERTEX
  8
0
 10
    1402.081787
 20
     661.569214
 30
       0.000000
  0
VERTEX
  8
0
 10
    1401.795654
 20
     660.257935
 30
       0.000000
  0
VERTEX
  8
0
 10
    1401.565674
 20
     659.054688
 30
       0.000000
  0
VERTEX
  8
0
 10
    1401.379639
 20
     657.947876
 30
       0.000000
  0
VERTEX
  8
0
 10
    1400.918701
 20
     654.258667
 30
       0.000000
  0
VERTEX
  8
0
 10
    1400.660400
 20
     649.995972
 30
       0.000000
  0
VERTEX
  8
0
 10
    1400.793213
 20
     643.463013
 30
       0.000000
  0
VERTEX
  8
0
 10
    1401.795654
 20
     635.928955
 30
       0.000000
  0
VERTEX
  8
0
 10
    1402.081787
 20
     634.617676
 30
       0.000000
  0
VERTEX
  8
0
 10
    1402.439697
 20
     633.188965
 30
       0.000000
  0
VERTEX
  8
0
 10
    1402.890869
 20
     631.639282
 30
       0.000000
  0
VERTEX
  8
0
 10
    1403.460693
 20
     629.977051
 30
       0.000000
  0
VERTEX
  8
0
 10
    1404.180420
 20
     628.232056
 30
       0.000000
  0
SEQEND
  8
0
  0
CIRCLE
  8
0
 10
    1220.633545
 20
     648.093506
 40
      26.000000
  0
TEXT
  8
0
 10
    2920.632568
 20
     514.763062
 40
      66.666672
 50
       0.000000
 51
       0.000000
 41
       0.910000
  1
410
  7
DIN-6776
 72
     5
 11
    3022.465820
 21
     514.763062
  0
TEXT
  8
0
 10
    2587.299072
 20
     514.762207
 40
      66.666672
 50
       0.000108
 51
       0.000000
 41
       0.910000
  1
700
  7
DIN-6776
 72
     5
 11
    2699.965820
 21
     514.762390
  0
TEXT
  8
0
 10
    2247.299561
 20
     514.761597
 40
      66.666672
 50
       0.000000
 51
       0.000000
 41
       0.910000
  1
1500
  7
DIN-6776
 72
     5
 11
    2392.466309
 21
     514.761597
  0
TEXT
  8
0
 10
    1913.965576
 20
     514.760620
 40
      66.666672
 50
       0.000000
 51
       0.000000
 41
       0.910000
  1
361-1
  7
DIN-6776
 72
     5
 11
    2087.298828
 21
     514.760620
  0
TEXT
  8
0
 10
    2913.965088
 20
     714.762573
 40
      66.666672
 50
       0.000000
 51
       0.000000
 41
       0.910000
  1
Tiefe
  7
DIN-6776
 72
     5
 11
    3080.798340
 21
     714.762573
  0
TEXT
  8
0
 10
    2580.632324
 20
     714.761719
 40
      66.666672
 50
       0.000065
 51
       0.000000
 41
       0.910000
  1
Breite
  7
DIN-6776
 72
     5
 11
    2779.402344
 21
     714.761963
  0
TEXT
  8
0
 10
    2247.299072
 20
     714.761108
 40
      66.666672
 50
       0.000054
 51
       0.000000
 41
       0.910000
  1
Laenge
  7
DIN-6776
 72
     5
 11
    2489.965820
 21
     714.761353
  0
TEXT
  8
0
 10
    1913.964600
 20
     714.760010
 40
      66.666672
 50
       0.000000
 51
       0.000000
 41
       0.910000
  1
Modell
  7
DIN-6776
 72
     5
 11
    2121.964600
 21
     714.760010
  0
TEXT
  8
0
 10
    2113.963867
 20
     881.424927
 40
     100.000008
 50
       0.000039
 51
       0.000000
 41
       0.746667
  1
SANIFORM PLUS
  7
DIN-6776
 72
     5
 11
    2817.963867
 21
     881.425415
  0
ENDSEC
  0
EOF
