  0
SECTION
  2
HEADER
  9
$ACADVER
  1
AC1009
  9
$ANGBASE
 50
       0.000000
  9
$ANGDIR
 70
     0
  9
$ATTDIA
 70
     0
  9
$ATTMODE
 70
     0
  9
$ATTREQ
 70
     0
  9
$AUNITS
 70
     0
  9
$AUPREC
 70
     1
  9
$BLIPMODE
 70
     1
  9
$CECOLOR
 62
   256
  9
$CELTYPE
  6
BYLAYER
  9
$CHAMFERA
 40
       0.000000
  9
$CHAMFERB
 40
       0.000000
  9
$CLAYER
  8
0
  9
$COORDS
 70
     1
  9
$DIMALT
 70
     0
  9
$DIMALTD
 70
     2
  9
$DIMALTF
 40
      25.400000
  9
$DIMAPOST
  1

  9
$DIMASO
 70
     0
  9
$DIMASZ
 40
       3.500000
  9
$DIMBLK
  1

  9
$DIMBLK1
  1

  9
$DIMBLK2
  1

  9
$DIMCEN
 40
       1.500000
  9
$DIMCLRD
 70
     0
  9
$DIMCLRE
 70
     0
  9
$DIMCLRT
 70
     0
  9
$DIMDLE
 40
       0.000000
  9
$DIMDLI
 40
       7.000000
  9
$DIMEXE
 40
       1.800000
  9
$DIMEXO
 40
       0.100000
  9
$DIMGAP
 40
       0.090000
  9
$DIMLFAC
 40
       1.000000
  9
$DIMLIM
 70
     0
  9
$DIMPOST
  1

  9
$DIMRND
 40
       0.000000
  9
$DIMSAH
 70
     0
  9
$DIMSCALE
 40
       1.000000
  9
$DIMSE1
 70
     0
  9
$DIMSE2
 70
     0
  9
$DIMSHO
 70
     1
  9
$DIMSOXD
 70
     0
  9
$DIMSTYLE
  2
*UNNAMED
  9
$DIMTAD
 70
     1
  9
$DIMTFAC
 40
       1.000000
  9
$DIMTIH
 70
     0
  9
$DIMTIX
 70
     0
  9
$DIMTM
 40
       0.000000
  9
$DIMTOFL
 70
     0
  9
$DIMTOH
 70
     0
  9
$DIMTOL
 70
     0
  9
$DIMTP
 40
       0.000000
  9
$DIMTSZ
 40
       0.000000
  9
$DIMTVP
 40
       0.000000
  9
$DIMTXT
 40
       3.500000
  9
$DIMZIN
 70
     0
  9
$DRAGMODE
 70
     2
  9
$DWGCODEPAGE
  3
dos850
  9
$ELEVATION
 40
       0.000000
  9
$EXTMAX
 10
    3226.599609
 20
    2319.512695
 30
       0.000000
  9
$EXTMIN
 10
       0.000000
 20
       0.000000
 30
       0.000000
  9
$FILLETRAD
 40
       0.000000
  9
$FILLMODE
 70
     1
  9
$HANDLING
 70
     0
  9
$HANDSEED
  5
0
  9
$INSBASE
 10
       0.000000
 20
       0.000000
 30
       0.000000
  9
$LIMCHECK
 70
     0
  9
$LIMMAX
 10
    3226.599609
 20
    2319.512695
  9
$LIMMIN
 10
       0.000000
 20
       0.000000
  9
$LTSCALE
 40
       1.000000
  9
$LUNITS
 70
     2
  9
$LUPREC
 70
     2
  9
$MAXACTVP
 70
    16
  9
$MENU
  1
ACAD
  9
$MIRRTEXT
 70
     0
  9
$ORTHOMODE
 70
     0
  9
$OSMODE
 70
     0
  9
$PDMODE
 70
     0
  9
$PDSIZE
 40
       0.000000
  9
$PELEVATION
 40
       0.000000
  9
$PEXTMAX
 10
    3226.599609
 20
    2319.512695
 30
       0.000000
  9
$PEXTMIN
 10
       0.000000
 20
       0.000000
 30
       0.000000
  9
$PINSBASE
 10
       0.000000
 20
       0.000000
 30
       0.000000
  9
$PLIMCHECK
 70
     0
  9
$PLIMMAX
 10
    3226.599609
 20
    2319.512695
  9
$PLIMMIN
 10
       0.000000
 20
       0.000000
  9
$PLINEGEN
 70
     0
  9
$PLINEWID
 40
       0.000000
  9
$PSLTSCALE
 70
     1
  9
$PUCSNAME
  2

  9
$PUCSORG
 10
       0.000000
 20
       0.000000
 30
       0.000000
  9
$PUCSXDIR
 10
       1.000000
 20
       0.000000
 30
       0.000000
  9
$PUCSYDIR
 10
       0.000000
 20
       1.000000
 30
       0.000000
  9
$QTEXTMODE
 70
     0
  9
$REGENMODE
 70
     1
  9
$SHADEDGE
 70
     3
  9
$SHADEDIF
 70
    70
  9
$SKETCHINC
 40
       1.000000
  9
$SKPOLY
 70
     0
  9
$SPLFRAME
 70
     0
  9
$SPLINESEGS
 70
     8
  9
$SPLINETYPE
 70
     6
  9
$SURFTAB1
 70
     6
  9
$SURFTAB2
 70
     6
  9
$SURFTYPE
 70
     6
  9
$SURFU
 70
     6
  9
$SURFV
 70
     6
  9
$TDCREATE
 40
2454175.4506944446
  9
$TDINDWG
 40
       0.000000
  9
$TDUPDATE
 40
2454175.4506944446
  9
$TDUSRTIMER
 40
       0.000000
  9
$TEXTSIZE
 40
       3.500000
  9
$TEXTSTYLE
  7
STANDARD
  9
$THICKNESS
 40
       0.000000
  9
$TILEMODE
 70
     1
  9
$TRACEWID
 40
       1.000000
  9
$TREEDEPTH
 70
 -3020
  9
$UCSNAME
  2

  9
$UCSORG
 10
       0.000000
 20
       0.000000
 30
       0.000000
  9
$UCSXDIR
 10
       1.000000
 20
       0.000000
 30
       0.000000
  9
$UCSYDIR
 10
       0.000000
 20
       1.000000
 30
       0.000000
  9
$UNITMODE
 70
     0
  9
$USERI1
 70
     0
  9
$USERI2
 70
     0
  9
$USERI3
 70
     0
  9
$USERI4
 70
     0
  9
$USERI5
 70
     0
  9
$USERR1
 40
       0.000000
  9
$USERR2
 40
       0.000000
  9
$USERR3
 40
       0.000000
  9
$USERR4
 40
       0.000000
  9
$USERR5
 40
       0.000000
  9
$USRTIMER
 70
     0
  9
$VISRETAIN
 70
     0
  9
$WORLDVIEW
 70
     1
  0
ENDSEC
  0
SECTION
  2
TABLES
  0
TABLE
  2
LTYPE
 70
   137
  0
LTYPE
  2
AUSGEZOGEN
 70
     0
  3
________________________________
 72
    65
 73
     2
 40
16.
 49
16.
 49
0.
  0
LTYPE
  2
VERDECKTE_KANTE
 70
     0
  3
_________________________
 72
    65
 73
     2
 40
5.
 49
3.906
 49
-1.094
  0
LTYPE
  2
HILFSLINIE
 70
     0
  3
________________________________
 72
    65
 73
     2
 40
16.
 49
16.
 49
0.
  0
LTYPE
  2
BRUCHLINIE
 70
     0
  3
________________________________
 72
    65
 73
     2
 40
16.
 49
16.
 49
0.
  0
LTYPE
  2
MITTELLINIE
 70
     0
  3
________________________   __
 72
    65
 73
     4
 40
13.
 49
9.75
 49
-1.22
 49
0.81
 49
-1.22
  0
LTYPE
  2
SCHNITTLINIE
 70
     0
  3
________________________   __
 72
    65
 73
     4
 40
13.
 49
9.75
 49
-1.22
 49
0.81
 49
-1.22
  0
LTYPE
  2
SCHWERLINIE
 70
     0
  3
_____________________  __  __
 72
    65
 73
     6
 40
15.
 49
9.84
 49
-0.94
 49
0.94
 49
-0.94
 49
0.94
 49
-1.41
  0
LTYPE
  2
ENTWURFSLINIE
 70
     0
  3
__      __      __      __
 72
    65
 73
     8
 40
16.
 49
1.
 49
-3.
 49
1.
 49
-3.
 49
1.
 49
-3.
 49
1.
 49
-3.
  0
LTYPE
  2
SONDERLINIE1
 70
     0
  3
________________________________
 72
    65
 73
     2
 40
16.
 49
16.
 49
0.
  0
LTYPE
  2
SONDERLINIE2
 70
     0
  3
________________________________
 72
    65
 73
     2
 40
15.
 49
15.
 49
0.
  0
LTYPE
  2
SONDERLINIE3
 70
     0
  3
________________________________
 72
    65
 73
     2
 40
16.
 49
16.
 49
0.
  0
LTYPE
  2
SONDERLINIE4
 70
     0
  3
________________________________
 72
    65
 73
     2
 40
16.
 49
16.
 49
0.
  0
LTYPE
  2
SONDERLINIE5
 70
     0
  3
________________________________
 72
    65
 73
     2
 40
16.
 49
16.
 49
0.
  0
LTYPE
  2
SONDERLINIE6
 70
     0
  3
________________________________
 72
    65
 73
     2
 40
16.
 49
16.
 49
0.
  0
LTYPE
  2
SONDERLINIE7
 70
     0
  3
________________________________
 72
    65
 73
     2
 40
16.
 49
16.
 49
0.
  0
LTYPE
  2
SONDERLINIE8
 70
     0
  3
________________________________
 72
    65
 73
     2
 40
16.
 49
16.
 49
0.
  0
LTYPE
  2
HEIZUNG-VORLAUF
 70
     0
  3
 
 72
    65
 73
     2
 40
16.
 49
16.
 49
0.
  0
LTYPE
  2
HEIZUNG-RUECKLAUF
 70
     0
  3
 
 72
    65
 73
     2
 40
5.
 49
4.063
 49
-0.938
  0
LTYPE
  2
TRINKWASSER-KALT
 70
     0
  3
 
 72
    65
 73
     2
 40
16.
 49
16.
 49
0.
  0
LTYPE
  2
TRINKWASSER-WARM
 70
     0
  3
 
 72
    65
 73
     2
 40
5.
 49
4.063
 49
-0.938
  0
LTYPE
  2
TRINKWASSER-ZIRKULATION
 70
     0
  3
 
 72
    65
 73
     4
 40
13.
 49
9.34
 49
-1.22
 49
1.22
 49
-1.22
  0
LTYPE
  2
SANITAER-SCHMUTZWASSER
 70
     0
  3
 
 72
    65
 73
     2
 40
16.
 49
16.
 49
0.
  0
LTYPE
  2
SANITAER-REGENWASSER
 70
     0
  3
 
 72
    65
 73
     2
 40
5.
 49
4.063
 49
-0.938
  0
LTYPE
  2
SANITAER-MISCHWASSER
 70
     0
  3
 
 72
    65
 73
     4
 40
13.
 49
9.34
 49
-1.22
 49
1.22
 49
-1.22
  0
LTYPE
  2
SANITAER-ENTLUEFTUNG
 70
     0
  3
 
 72
    65
 73
     2
 40
5.
 49
4.063
 49
-0.938
  0
LTYPE
  2
SPRINKLER
 70
     0
  3
 
 72
    65
 73
     2
 40
16.
 49
16.
 49
0.
  0
LTYPE
  2
WERKWASSER
 70
     0
  3
 
 72
    65
 73
     2
 40
16.
 49
16.
 49
0.
  0
LTYPE
  2
KUEHLWASSER-VL
 70
     0
  3
 
 72
    65
 73
     2
 40
16.
 49
16.
 49
0.
  0
LTYPE
  2
KUEHLWASSER-RL-D
 70
     0
  3
 
 72
    65
 73
     2
 40
5.
 49
4.063
 49
-0.938
  0
LTYPE
  2
KUEHLWASSER-RL-DI
 70
     0
  3
 
 72
    65
 73
     2
 40
5.
 49
4.063
 49
-0.938
  0
LTYPE
  2
KALTWASSER-KAELTEANL--VL
 70
     0
  3
 
 72
    65
 73
     2
 40
16.
 49
16.
 49
0.
  0
LTYPE
  2
KALTWASSER-KAELTEANL--RL
 70
     0
  3
 
 72
    65
 73
     2
 40
5.
 49
4.063
 49
-0.938
  0
LTYPE
  2
SCHLEIFEMULSION
 70
     0
  3
 
 72
    65
 73
     2
 40
16.
 49
16.
 49
0.
  0
LTYPE
  2
BOHREMULSION
 70
     0
  3
 
 72
    65
 73
     2
 40
16.
 49
16.
 49
0.
  0
LTYPE
  2
SCHNEIDEMULSION
 70
     0
  3
 
 72
    65
 73
     2
 40
16.
 49
16.
 49
0.
  0
LTYPE
  2
DRUCKLUFT-HAUPTNETZ
 70
     0
  3
 
 72
    65
 73
     2
 40
16.
 49
16.
 49
0.
  0
LTYPE
  2
DRUCKLUFT-HOCHDRUCKNETZ
 70
     0
  3
 
 72
    65
 73
     2
 40
16.
 49
16.
 49
0.
  0
LTYPE
  2
DRUCKLUFT-NIEDERDRUCKNETZ
 70
     0
  3
 
 72
    65
 73
     2
 40
16.
 49
16.
 49
0.
  0
LTYPE
  2
MISCHWASSER-DRUCK
 70
     0
  3
 
 72
    65
 73
     2
 40
16.
 49
16.
 49
0.
  0
LTYPE
  2
MISCHWASSER-KANAL
 70
     0
  3
 
 72
    65
 73
     2
 40
16.
 49
16.
 49
0.
  0
LTYPE
  2
OELHALTIGES-ABWASSER-DRUCK
 70
     0
  3
 
 72
    65
 73
     2
 40
16.
 49
16.
 49
0.
  0
LTYPE
  2
OELHALTIGES-ABWASSER-KANAL
 70
     0
  3
 
 72
    65
 73
     2
 40
16.
 49
16.
 49
0.
  0
LTYPE
  2
REGENWASSER-DRUCK
 70
     0
  3
 
 72
    65
 73
     2
 40
16.
 49
16.
 49
0.
  0
LTYPE
  2
REGENWASSER-KANAL
 70
     0
  3
 
 72
    65
 73
     2
 40
16.
 49
16.
 49
0.
  0
LTYPE
  2
SCHMUTZWASSER-DRUCK
 70
     0
  3
 
 72
    65
 73
     2
 40
16.
 49
16.
 49
0.
  0
LTYPE
  2
SCHMUTZWASSER-KANAL
 70
     0
  3
 
 72
    65
 73
     2
 40
16.
 49
16.
 49
0.
  0
LTYPE
  2
ALTEMULSION
 70
     0
  3
 
 72
    65
 73
     2
 40
16.
 49
16.
 49
0.
  0
LTYPE
  2
ALTWASCHWASSER
 70
     0
  3
 
 72
    65
 73
     2
 40
16.
 49
16.
 49
0.
  0
LTYPE
  2
CHROMHALTIGES-SPUELWASSER
 70
     0
  3
 
 72
    65
 73
     2
 40
16.
 49
16.
 49
0.
  0
LTYPE
  2
CYANIDHALTIGES-SPUELWASSER
 70
     0
  3
 
 72
    65
 73
     2
 40
16.
 49
16.
 49
0.
  0
LTYPE
  2
GEKLAERTES-ABWASSER
 70
     0
  3
 
 72
    65
 73
     2
 40
16.
 49
16.
 49
0.
  0
LTYPE
  2
NITRITHALTIGES-SPUELWASSER
 70
     0
  3
 
 72
    65
 73
     2
 40
16.
 49
16.
 49
0.
  0
LTYPE
  2
SAURES-ALKALISCHES-ELUAT
 70
     0
  3
 
 72
    65
 73
     2
 40
16.
 49
16.
 49
0.
  0
LTYPE
  2
SAURES-ALKALISCHES-SPUELWASSER
 70
     0
  3
 
 72
    65
 73
     2
 40
16.
 49
16.
 49
0.
  0
LTYPE
  2
AMIDASULFONSAEURE
 70
     0
  3
 
 72
    65
 73
     2
 40
16.
 49
16.
 49
0.
  0
LTYPE
  2
CHROMHALTIGES-KONZENTRAT
 70
     0
  3
 
 72
    65
 73
     2
 40
16.
 49
16.
 49
0.
  0
LTYPE
  2
CYANIDHALTIGES-KONZENTRAT
 70
     0
  3
 
 72
    65
 73
     2
 40
16.
 49
16.
 49
0.
  0
LTYPE
  2
ELEKTROLYT
 70
     0
  3
 
 72
    65
 73
     2
 40
16.
 49
16.
 49
0.
  0
LTYPE
  2
NATRIUMBISULFIT
 70
     0
  3
 
 72
    65
 73
     2
 40
16.
 49
16.
 49
0.
  0
LTYPE
  2
NATRIUMHYPOCHLORIT
 70
     0
  3
 
 72
    65
 73
     2
 40
16.
 49
16.
 49
0.
  0
LTYPE
  2
NATRONLAUGE
 70
     0
  3
 
 72
    65
 73
     2
 40
16.
 49
16.
 49
0.
  0
LTYPE
  2
NITRITHALTIGES-KONZENTRAT
 70
     0
  3
 
 72
    65
 73
     2
 40
16.
 49
16.
 49
0.
  0
LTYPE
  2
PHOSPHORSAEURE
 70
     0
  3
 
 72
    65
 73
     2
 40
16.
 49
16.
 49
0.
  0
LTYPE
  2
SALPETERSAEURE
 70
     0
  3
 
 72
    65
 73
     2
 40
16.
 49
16.
 49
0.
  0
LTYPE
  2
SALZSAEURE
 70
     0
  3
 
 72
    65
 73
     2
 40
16.
 49
16.
 49
0.
  0
LTYPE
  2
SCHWEFELSAEURE
 70
     0
  3
 
 72
    65
 73
     2
 40
16.
 49
16.
 49
0.
  0
LTYPE
  2
BETRIEBSWAERME-RL
 70
     0
  3
 
 72
    65
 73
     2
 40
5.
 49
4.063
 49
-0.938
  0
LTYPE
  2
BETRIEBSWAERME-VL
 70
     0
  3
 
 72
    65
 73
     2
 40
16.
 49
16.
 49
0.
  0
LTYPE
  2
WARMWASSER-VL
 70
     0
  3
 
 72
    65
 73
     2
 40
16.
 49
16.
 49
0.
  0
LTYPE
  2
WARMWASSER-ZIRKULATION
 70
     0
  3
 
 72
    65
 73
     4
 40
13.
 49
9.34
 49
-1.22
 49
1.22
 49
-1.22
  0
LTYPE
  2
ROHWASSER
 70
     0
  3
 
 72
    65
 73
     2
 40
16.
 49
16.
 49
0.
  0
LTYPE
  2
ARGON
 70
     0
  3
 
 72
    65
 73
     2
 40
16.
 49
16.
 49
0.
  0
LTYPE
  2
CORGON
 70
     0
  3
 
 72
    65
 73
     2
 40
16.
 49
16.
 49
0.
  0
LTYPE
  2
KOHLENDIOXID
 70
     0
  3
 
 72
    65
 73
     2
 40
16.
 49
16.
 49
0.
  0
LTYPE
  2
STICKSTOFF
 70
     0
  3
 
 72
    65
 73
     2
 40
16.
 49
16.
 49
0.
  0
LTYPE
  2
AZETYLEN
 70
     0
  3
 
 72
    65
 73
     2
 40
16.
 49
16.
 49
0.
  0
LTYPE
  2
ERDGAS
 70
     0
  3
 
 72
    65
 73
     2
 40
16.
 49
16.
 49
0.
  0
LTYPE
  2
SAUERSTOFF--TECHNISCH-REIN
 70
     0
  3
 
 72
    65
 73
     2
 40
16.
 49
16.
 49
0.
  0
LTYPE
  2
TRAEGERGAS
 70
     0
  3
 
 72
    65
 73
     2
 40
16.
 49
16.
 49
0.
  0
LTYPE
  2
WASSERSTOFF
 70
     0
  3
 
 72
    65
 73
     2
 40
16.
 49
16.
 49
0.
  0
LTYPE
  2
KRAFTSTOFF-GK-A-I-D
 70
     0
  3
 
 72
    65
 73
     2
 40
16.
 49
16.
 49
0.
  0
LTYPE
  2
KRAFTSTOFF-SONDER-D
 70
     0
  3
 
 72
    65
 73
     2
 40
16.
 49
16.
 49
0.
  0
LTYPE
  2
ACHSOEL
 70
     0
  3
 
 72
    65
 73
     2
 40
16.
 49
16.
 49
0.
  0
LTYPE
  2
ALTOEL
 70
     0
  3
 
 72
    65
 73
     2
 40
16.
 49
16.
 49
0.
  0
LTYPE
  2
BOHROEL
 70
     0
  3
 
 72
    65
 73
     2
 40
16.
 49
16.
 49
0.
  0
LTYPE
  2
ERODIEROEL
 70
     0
  3
 
 72
    65
 73
     2
 40
16.
 49
16.
 49
0.
  0
LTYPE
  2
FETT
 70
     0
  3
 
 72
    65
 73
     2
 40
16.
 49
16.
 49
0.
  0
LTYPE
  2
GETRIEBEOEL
 70
     0
  3
 
 72
    65
 73
     2
 40
16.
 49
16.
 49
0.
  0
LTYPE
  2
HAERTEOEL
 70
     0
  3
 
 72
    65
 73
     2
 40
16.
 49
16.
 49
0.
  0
LTYPE
  2
HONOEL
 70
     0
  3
 
 72
    65
 73
     2
 40
16.
 49
16.
 49
0.
  0
LTYPE
  2
HYDRAULIKOEL
 70
     0
  3
 
 72
    65
 73
     2
 40
16.
 49
16.
 49
0.
  0
LTYPE
  2
MOTOROEL
 70
     0
  3
 
 72
    65
 73
     2
 40
16.
 49
16.
 49
0.
  0
LTYPE
  2
NORMALSPUELOEL
 70
     0
  3
 
 72
    65
 73
     2
 40
16.
 49
16.
 49
0.
  0
LTYPE
  2
RAEUMOEL
 70
     0
  3
 
 72
    65
 73
     2
 40
16.
 49
16.
 49
0.
  0
LTYPE
  2
SCHLEIFOEL
 70
     0
  3
 
 72
    65
 73
     2
 40
16.
 49
16.
 49
0.
  0
LTYPE
  2
SCHNEIDOEL
 70
     0
  3
 
 72
    65
 73
     2
 40
16.
 49
16.
 49
0.
  0
LTYPE
  2
SONDERSPUELOEL
 70
     0
  3
 
 72
    65
 73
     2
 40
16.
 49
16.
 49
0.
  0
LTYPE
  2
ZIEHOEL
 70
     0
  3
 
 72
    65
 73
     2
 40
16.
 49
16.
 49
0.
  0
LTYPE
  2
MONTAGEOEL
 70
     0
  3
 
 72
    65
 73
     2
 40
16.
 49
16.
 49
0.
  0
LTYPE
  2
MONTAGE-GLEITOEL
 70
     0
  3
 
 72
    65
 73
     2
 40
16.
 49
16.
 49
0.
  0
LTYPE
  2
SPUELOEL
 70
     0
  3
 
 72
    65
 73
     2
 40
16.
 49
16.
 49
0.
  0
LTYPE
  2
TIEFBOHROEL
 70
     0
  3
 
 72
    65
 73
     2
 40
16.
 49
16.
 49
0.
  0
LTYPE
  2
AMIN
 70
     0
  3
 
 72
    65
 73
     2
 40
16.
 49
16.
 49
0.
  0
LTYPE
  2
HAERTER
 70
     0
  3
 
 72
    65
 73
     2
 40
16.
 49
16.
 49
0.
  0
LTYPE
  2
HARZ
 70
     0
  3
 
 72
    65
 73
     2
 40
16.
 49
16.
 49
0.
  0
LTYPE
  2
LOESEMITTEL
 70
     0
  3
 
 72
    65
 73
     2
 40
16.
 49
16.
 49
0.
  0
LTYPE
  2
LACK
 70
     0
  3
 
 72
    65
 73
     2
 40
16.
 49
16.
 49
0.
  0
LTYPE
  2
WASCHWASSER
 70
     0
  3
 
 72
    65
 73
     2
 40
16.
 49
16.
 49
0.
  0
LTYPE
  2
GLEITSCHLEIFWASSER
 70
     0
  3
 
 72
    65
 73
     2
 40
16.
 49
16.
 49
0.
  0
LTYPE
  2
VERDUENNUNG
 70
     0
  3
 
 72
    65
 73
     2
 40
16.
 49
16.
 49
0.
  0
LTYPE
  2
KUEHLDECKEN-VORLAUF
 70
     0
  3
 
 72
    65
 73
     2
 40
16.
 49
16.
 49
0.
  0
LTYPE
  2
KUEHLDECKEN-RUECKLAUF
 70
     0
  3
 
 72
    65
 73
     2
 40
5.
 49
4.063
 49
-0.938
  0
LTYPE
  2
KONDENSAT
 70
     0
  3
 
 72
    65
 73
     2
 40
16.
 49
16.
 49
0.
  0
LTYPE
  2
KONDENSAT-REINDAMPF
 70
     0
  3
 
 72
    65
 73
     2
 40
16.
 49
16.
 49
0.
  0
LTYPE
  2
KONDENSAT-HOCHDRUCK
 70
     0
  3
 
 72
    65
 73
     2
 40
16.
 49
16.
 49
0.
  0
LTYPE
  2
DAMPF
 70
     0
  3
 
 72
    65
 73
     2
 40
16.
 49
16.
 49
0.
  0
LTYPE
  2
REINDAMPF
 70
     0
  3
 
 72
    65
 73
     2
 40
16.
 49
16.
 49
0.
  0
LTYPE
  2
DAMPF-HOCHDRUCK
 70
     0
  3
 
 72
    65
 73
     2
 40
16.
 49
16.
 49
0.
  0
LTYPE
  2
KLIMA-ZENTRALE
 70
     0
  3
 
 72
    65
 73
     2
 40
16.
 49
16.
 49
0.
  0
LTYPE
  2
KLIMA-AUSSENLUFT
 70
     0
  3
 
 72
    65
 73
     4
 40
13.
 49
9.34
 49
-1.22
 49
1.22
 49
-1.22
  0
LTYPE
  2
KLIMA-ZULUFT-I
 70
     0
  3
 
 72
    65
 73
     2
 40
16.
 49
16.
 49
0.
  0
LTYPE
  2
KLIMA-ZULUFT-II
 70
     0
  3
 
 72
    65
 73
     2
 40
16.
 49
16.
 49
0.
  0
LTYPE
  2
KLIMA-ZULUFT-III
 70
     0
  3
 
 72
    65
 73
     2
 40
16.
 49
16.
 49
0.
  0
LTYPE
  2
KLIMA-ZULUFT-IV
 70
     0
  3
 
 72
    65
 73
     2
 40
16.
 49
16.
 49
0.
  0
LTYPE
  2
KLIMA-UMLUFT
 70
     0
  3
 
 72
    65
 73
     2
 40
5.
 49
4.063
 49
-0.938
  0
LTYPE
  2
KLIMA-MISCHLUFT
 70
     0
  3
 
 72
    65
 73
     6
 40
11.
 49
3.78
 49
-1.03
 49
3.78
 49
-1.03
 49
0.34
 49
-1.03
  0
LTYPE
  2
KLIMA-ABLUFT
 70
     0
  3
 
 72
    65
 73
     2
 40
5.
 49
4.063
 49
-0.938
  0
LTYPE
  2
KLIMA-FORTLUFT
 70
     0
  3
 
 72
    65
 73
     2
 40
5.
 49
4.063
 49
-0.938
  0
LTYPE
  2
ENTRAUCHUNG
 70
     0
  3
 
 72
    65
 73
     2
 40
5.
 49
4.063
 49
-0.938
  0
LTYPE
  2
ELEKTRO-ZENTRALE
 70
     0
  3
 
 72
    65
 73
     2
 40
16.
 49
16.
 49
0.
  0
LTYPE
  2
STROMSCHIENEN
 70
     0
  3
 
 72
    65
 73
     2
 40
16.
 49
16.
 49
0.
  0
LTYPE
  2
ELEKTRO-LEITUNGSFUEHRUNG
 70
     0
  3
 
 72
    65
 73
     2
 40
16.
 49
16.
 49
0.
  0
LTYPE
  2
ELEKTRO-KABELTRAEGER
 70
     0
  3
 
 72
    65
 73
     2
 40
16.
 49
16.
 49
0.
  0
LTYPE
  2
INNENWAND
 70
     0
  3
 
 72
    65
 73
     2
 40
16.
 49
16.
 49
0.
  0
LTYPE
  2
AUSSENWAND
 70
     0
  3
 
 72
    65
 73
     2
 40
16.
 49
16.
 49
0.
  0
LTYPE
  2
ERDBERUEHREND
 70
     0
  3
 
 72
    65
 73
     2
 40
16.
 49
16.
 49
0.
  0
LTYPE
  2
REINWASSER
 70
     0
  3
 
 72
    65
 73
     2
 40
16.
 49
16.
 49
0.
  0
ENDTAB
  0
TABLE
  2
LAYER
 70
     1
  0
LAYER
  2
0
 62
     7
  6
AUSGEZOGEN
 70
    64
  0
ENDTAB
  0
TABLE
  2
STYLE
 70
    23
  0
STYLE
  2
STANDARD
 70
     0
 40
     0
 41
       1.000000
 50
       0.000000
 71
     0
 42
       3.500000
  3
isocp
  4

  0
STYLE
  2
DIN-6776
 70
     0
 40
     0
 41
       1.000000
 50
       0.000000
 71
     0
 42
       3.500000
  3
isocp
  4

  0
STYLE
  2
ROMAN
 70
     0
 40
     0
 41
       1.000000
 50
       0.000000
 71
     0
 42
       3.500000
  3
romans.shx
  4

  0
STYLE
  2
SCRIPT
 70
     0
 40
     0
 41
       1.000000
 50
       0.000000
 71
     0
 42
       3.500000
  3
scripts.shx
  4

  0
STYLE
  2
GRIECHISCH
 70
     0
 40
     0
 41
       1.000000
 50
       0.000000
 71
     0
 42
       3.500000
  3
greeks.shx
  4

  0
STYLE
  2
KYRILLISCH
 70
     0
 40
     0
 41
       1.000000
 50
       0.000000
 71
     0
 42
       3.500000
  3
cyrillic.shx
  4

  0
STYLE
  2
MATH--FORMELZEICHEN
 70
     0
 40
     0
 41
       1.000000
 50
       0.000000
 71
     0
 42
       3.500000
  3
symath.shx
  4

  0
STYLE
  2
DOPPELLINIE
 70
     0
 40
     0
 41
       1.000000
 50
       0.000000
 71
     0
 42
       3.500000
  3
swissko.ttf
  4

  0
STYLE
  2
SERIFENSCHRIFT
 70
     0
 40
     0
 41
       1.000000
 50
       0.000000
 71
     0
 42
       3.500000
  3
romanc__.ttf
  4

  0
STYLE
  2
ARIAL
 70
     0
 40
     0
 41
       1.000000
 50
       0.000000
 71
     0
 42
       3.500000
  3
arial.ttf
  4

  0
STYLE
  2
ARIAL-FETT
 70
     0
 40
     0
 41
       1.000000
 50
       0.000000
 71
     0
 42
       3.500000
  3
arialbd.ttf
  4

  0
STYLE
  2
TIMES-NEW-ROMAN
 70
     0
 40
     0
 41
       1.000000
 50
       0.000000
 71
     0
 42
       3.500000
  3
times.ttf
  4

  0
STYLE
  2
TIMES-NEW-ROMAN-FETT
 70
     0
 40
     0
 41
       1.000000
 50
       0.000000
 71
     0
 42
       3.500000
  3
timesbd.ttf
  4

  0
STYLE
  2
DIN-6776-OSTEUROPA
 70
     0
 40
     0
 41
       1.000000
 50
       0.000000
 71
     0
 42
       3.500000
  3
txt
  4

  0
STYLE
  2
DIN-6776-KYRILLISCH
 70
     0
 40
     0
 41
       1.000000
 50
       0.000000
 71
     0
 42
       3.500000
  3
txt
  4

  0
STYLE
  2
ARIAL-OSTEUROPA
 70
     0
 40
     0
 41
       1.000000
 50
       0.000000
 71
     0
 42
       3.500000
  3
arial.ttf
  4

  0
STYLE
  2
ARIAL-KYRILLISCH
 70
     0
 40
     0
 41
       1.000000
 50
       0.000000
 71
     0
 42
       3.500000
  3
arial.ttf
  4

  0
STYLE
  2
ARIAL-FETT-OSTEUROPA
 70
     0
 40
     0
 41
       1.000000
 50
       0.000000
 71
     0
 42
       3.500000
  3
arialbd.ttf
  4

  0
STYLE
  2
ARIAL-FETT-KYRILLISCH
 70
     0
 40
     0
 41
       1.000000
 50
       0.000000
 71
     0
 42
       3.500000
  3
arialbd.ttf
  4

  0
STYLE
  2
TIMES-N-R-OSTEUROPA
 70
     0
 40
     0
 41
       1.000000
 50
       0.000000
 71
     0
 42
       3.500000
  3
times.ttf
  4

  0
STYLE
  2
TIMES-N-R-KYRILLISCH
 70
     0
 40
     0
 41
       1.000000
 50
       0.000000
 71
     0
 42
       3.500000
  3
times.ttf
  4

  0
STYLE
  2
TIMES-N-R-FETT-OSTEUROPA
 70
     0
 40
     0
 41
       1.000000
 50
       0.000000
 71
     0
 42
       3.500000
  3
timesbd.ttf
  4

  0
STYLE
  2
TIMES-N-R-FETT-KYRILLISCH
 70
     0
 40
     0
 41
       1.000000
 50
       0.000000
 71
     0
 42
       3.500000
  3
timesbd.ttf
  4

  0
ENDTAB
  0
TABLE
  2
VIEW
 70
     0
  0
ENDTAB
  0
TABLE
  2
VPORT
 70
     2
  0
VPORT
  2
*ACTIVE
 70
     0
 10
       0.000000
 20
       0.000000
 11
       1.000000
 21
       1.000000
 12
    1613.299805
 22
    1159.756348
 13
       0.000000
 23
       0.000000
 14
       1.000000
 24
       1.000000
 15
       0.000000
 25
       0.000000
 16
       0.000000
 26
       0.000000
 36
       1.000000
 17
       0.000000
 27
       0.000000
 37
       0.000000
 40
    2319.512695
 41
       1.391068
 42
      50.000000
 43
       0.000000
 44
       0.000000
 50
       0.000000
 51
       0.000000
 71
     0
 72
   100
 73
     1
 74
     1
 75
     0
 76
     0
 77
     0
 78
     0
  0
ENDTAB
  0
TABLE
  2
DIMSTYLE
 70
     1
  0
DIMSTYLE
  2
STDBEM
 70
     0
  3

  4

  5

  6

  7

 40
       1.000000
 41
       3.500000
 42
       0.100000
 43
       7.000000
 44
       1.800000
 45
       0.000000
 46
       0.000000
 47
       0.000000
 48
       0.000000
140
       3.500000
141
       1.500000
142
       0.000000
143
      25.400000
144
       1.000000
145
       0.000000
146
       1.000000
147
       0.090000
 71
     0
 72
     0
 73
     0
 74
     0
 75
     0
 76
     0
 77
     1
 78
     0
170
     0
171
     2
172
     0
173
     0
174
     0
175
     0
176
     0
177
     0
178
     0
  0
ENDTAB
  0
ENDSEC
  0
SECTION
  2
BLOCKS
  0
ENDSEC
  0
SECTION
  2
ENTITIES
  0
CIRCLE
  8
0
  6
VERDECKTE_KANTE
 62
     8
 10
    2581.633301
 20
    1917.755859
 40
      26.000000
  0
LINE
  8
0
  6
HILFSLINIE
 62
     8
 10
     241.633179
 20
    1936.755859
 11
    1521.633179
 21
    1936.755859
  0
LINE
  8
0
  6
HILFSLINIE
 62
     8
 10
    3194.966309
 20
     684.755859
 11
    1968.300659
 21
     684.756104
  0
LINE
  8
0
  6
HILFSLINIE
 62
     8
 10
    1331.631958
 20
     559.756470
 11
     549.682617
 21
     559.757202
  0
LINE
  8
0
  6
HILFSLINIE
 62
     8
 10
    1331.631958
 20
     809.756470
 11
     549.682739
 21
     809.757202
  0
ARC
  8
0
  6
HILFSLINIE
 62
     8
 10
    2603.385254
 20
     958.402832
 40
    1000.000000
 50
      76.960594
 51
      83.908127
  0
ARC
  8
0
  6
HILFSLINIE
 62
     8
 10
    2559.881348
 20
     958.402832
 40
    1000.000000
 50
      96.091873
 51
     103.039398
  0
ARC
  8
0
  6
HILFSLINIE
 62
     8
 10
     549.682617
 20
     619.757202
 40
      60.000000
 50
     186.435165
 51
     270.000000
  0
ARC
  8
0
  6
HILFSLINIE
 62
     8
 10
     549.682739
 20
     749.757202
 40
      60.000000
 50
      90.000000
 51
     173.564835
  0
ARC
  8
0
  6
HILFSLINIE
 62
     8
 10
    1331.631958
 20
     684.756470
 40
     124.999985
 50
     270.000000
 51
      90.000000
  0
ARC
  8
0
  6
HILFSLINIE
 62
     8
 10
    1126.028442
 20
     684.756470
 40
     640.000000
 50
     173.565277
 51
     186.434586
  0
LINE
  8
0
  6
MITTELLINIE
 62
     8
 10
     881.633179
 20
    1984.755859
 11
     881.633179
 21
    1595.633423
  0
LINE
  8
0
  6
MITTELLINIE
 62
     8
 10
    2581.633301
 20
    1984.755859
 11
    2581.633301
 21
    1567.255859
  0
LINE
  8
0
  6
MITTELLINIE
 62
     8
 10
    1731.632446
 20
     684.756348
 11
      31.634399
 21
     684.757324
  0
LINE
  8
0
  6
MITTELLINIE
 62
     8
 10
     881.632935
 20
    1034.756836
 11
     881.633667
 21
     334.756836
  0
LINE
  8
0
  6
MITTELLINIE
 62
     8
 10
    1411.632202
 20
    1984.755859
 11
    1411.632202
 21
    1567.755859
  0
LINE
  8
0
 10
      31.633179
 20
    1978.755859
 11
      31.633179
 21
    1958.755859
  0
LINE
  8
0
 10
    1731.633179
 20
    1978.755859
 11
    1731.633179
 21
    1958.755859
  0
LINE
  8
0
 10
      37.633179
 20
    1984.755859
 11
    1725.633179
 21
    1984.755859
  0
LINE
  8
0
 10
    1725.633179
 20
    1952.755859
 11
      37.633179
 21
    1952.755859
  0
LINE
  8
0
 10
    1385.011597
 20
    1567.755859
 11
    1438.252808
 21
    1567.755859
  0
LINE
  8
0
 10
     486.505981
 20
    1605.980103
 11
    1365.883667
 21
    1582.952881
  0
LINE
  8
0
 10
    2607.633301
 20
    1567.255859
 11
    2555.633301
 21
    1567.255859
  0
LINE
  8
0
 10
    2231.633301
 20
    1958.755859
 11
    2231.633301
 21
    1978.755859
  0
LINE
  8
0
 10
    2931.633301
 20
    1958.755859
 11
    2931.633301
 21
    1978.755859
  0
LINE
  8
0
 10
    2925.633301
 20
    1984.755859
 11
    2237.633301
 21
    1984.755859
  0
LINE
  8
0
 10
    2925.633301
 20
    1952.755859
 11
    2237.633301
 21
    1952.755859
  0
LINE
  8
0
 10
    1638.266968
 20
    1938.909302
 11
    1637.931030
 21
    1932.635864
  0
LINE
  8
0
 10
    1708.632690
 20
     334.756348
 11
      54.634766
 21
     334.757324
  0
LINE
  8
0
 10
    1708.631958
 20
    1034.756348
 11
      54.633911
 21
    1034.757324
  0
LINE
  8
0
 10
      31.633911
 20
    1011.757324
 11
      31.634766
 21
     357.757324
  0
LINE
  8
0
 10
    1731.632690
 20
     357.756348
 11
    1731.631958
 21
    1011.756348
  0
LINE
  8
0
 10
    2537.830566
 20
    1582.234985
 11
    2625.436035
 21
    1582.237793
  0
LINE
  8
0
 10
    1365.883667
 20
    1582.952881
 11
    1457.349731
 21
    1583.351074
  0
ARC
  8
0
 10
      37.633179
 20
    1978.755859
 40
       6.000000
 50
      90.000000
 51
     180.000000
  0
ARC
  8
0
 10
      37.633179
 20
    1958.755859
 40
       6.000000
 50
     180.000000
 51
     270.000000
  0
ARC
  8
0
 10
    1725.633179
 20
    1978.755859
 40
       6.000000
 50
       0.000000
 51
      90.000000
  0
ARC
  8
0
 10
    1725.633179
 20
    1958.755859
 40
       6.000000
 50
     270.000000
 51
       0.000000
  0
ARC
  8
0
 10
      56.477905
 20
    1893.588257
 40
      87.000046
 50
      29.259525
 51
      42.850552
  0
ARC
  8
0
 10
    1443.619019
 20
    2670.723633
 40
    1502.999878
 50
     209.259399
 51
     220.501205
  0
ARC
  8
0
 10
   -2359.164062
 20
    2149.982910
 40
    4003.000000
 50
     355.898193
 51
     356.887543
  0
ARC
  8
0
 10
    1131.870483
 20
    1899.632324
 40
     503.000000
 50
     348.772827
 51
     355.898193
  0
ARC
  8
0
 10
    1451.593140
 20
    1736.242676
 40
     152.999985
 50
     272.156250
 51
     343.416718
  0
ARC
  8
0
 10
     445.266479
 20
    2035.921387
 40
    1203.000000
 50
     343.416748
 51
     348.772858
  0
ARC
  8
0
 10
    1438.252808
 20
    1576.755859
 40
       9.000000
 50
     270.000000
 51
     347.299805
  0
ARC
  8
0
 10
    1385.011597
 20
    1576.755859
 40
       9.000000
 50
     193.884323
 51
     270.000000
  0
ARC
  8
0
 10
     493.128784
 20
    1858.893433
 40
     253.000000
 50
     220.501190
 51
     268.499969
  0
ARC
  8
0
 10
    2316.774414
 20
    1934.253296
 40
       3.000006
 50
     183.538513
 51
     185.016083
  0
ARC
  8
0
 10
    3512.183105
 20
    2039.124268
 40
    1203.000122
 50
     185.013611
 51
     198.959747
  0
ARC
  8
0
 10
    2462.403809
 20
    1678.480835
 40
      92.999924
 50
     198.959656
 51
     266.323822
  0
ARC
  8
0
 10
    2581.633301
 20
    3584.755859
 40
    2002.999878
 50
     266.416534
 51
     268.746918
  0
ARC
  8
0
 10
    2700.862793
 20
    1678.480835
 40
      93.000023
 50
     273.672821
 51
     341.040070
  0
ARC
  8
0
 10
    1651.083374
 20
    2039.124268
 40
    1203.000244
 50
     341.040222
 51
     355.296356
  0
ARC
  8
0
 10
    2607.979980
 20
    1576.755859
 40
       9.000000
 50
     270.000000
 51
     348.726471
  0
ARC
  8
0
 10
    2625.633301
 20
    1573.239990
 40
       9.000000
 50
      91.255936
 51
     168.745987
  0
ARC
  8
0
 10
    2555.286621
 20
    1576.755859
 40
       9.000000
 50
     191.272903
 51
     270.000000
  0
ARC
  8
0
 10
    2537.633301
 20
    1573.239990
 40
       9.000000
 50
      11.254607
 51
      88.744057
  0
ARC
  8
0
 10
    2581.633301
 20
    3584.755859
 40
    2002.999878
 50
     271.253052
 51
     273.583313
  0
ARC
  8
0
 10
    2925.633301
 20
    1978.755859
 40
       6.000000
 50
       0.000000
 51
      90.000000
  0
ARC
  8
0
 10
    2925.633301
 20
    1958.755859
 40
       6.000000
 50
     270.000000
 51
       0.000000
  0
ARC
  8
0
 10
    2237.633301
 20
    1978.755859
 40
       6.000000
 50
      90.000000
 51
     180.000000
  0
ARC
  8
0
 10
    2237.633301
 20
    1958.755859
 40
       6.000000
 50
     180.000000
 51
     270.000000
  0
ARC
  8
0
 10
   -2359.164062
 20
    2149.982910
 40
    4002.999756
 50
     356.977448
 51
     357.175873
  0
ARC
  8
0
 10
    1387.122192
 20
     642.518188
 40
     250.000000
 50
     327.023560
 51
     358.617126
  0
ARC
  8
0
 10
    -362.368103
 20
     684.756348
 40
    2000.000000
 50
     358.616974
 51
       1.383010
  0
ARC
  8
0
 10
    1387.122192
 20
     726.992798
 40
     250.000000
 50
       1.383262
 51
      32.976551
  0
ARC
  8
0
 10
    1708.632690
 20
     357.756348
 40
      23.000000
 50
     270.000000
 51
       0.000000
  0
ARC
  8
0
 10
    1708.631958
 20
    1011.756348
 40
      23.000000
 50
       0.000000
 51
      90.000000
  0
ARC
  8
0
 10
      54.633911
 20
    1011.757324
 40
      23.000000
 50
      90.000000
 51
     180.000000
  0
ARC
  8
0
 10
      54.634766
 20
     357.757324
 40
      23.000000
 50
     180.000000
 51
     270.000000
  0
ARC
  8
0
 10
     476.225708
 20
   25395.744141
 40
   25000.000000
 50
     269.482117
 51
     272.224518
  0
ARC
  8
0
 10
     476.219727
 20
  -24026.224609
 40
   25000.000000
 50
      87.775475
 51
      90.517845
  0
ARC
  8
0
 10
     251.447266
 20
     526.757202
 40
     130.000000
 50
     190.712296
 51
     269.481781
  0
ARC
  8
0
 10
     251.446411
 20
     842.757202
 40
     130.000000
 50
      90.518211
 51
     169.320129
  0
ARC
  8
0
 10
    1086.631958
 20
     684.756470
 40
     980.000000
 50
     169.291702
 51
     190.712509
  0
ARC
  8
0
 10
    1365.595825
 20
    1571.956665
 40
      11.000000
 50
      13.883883
 51
      88.500542
  0
ARC
  8
0
 10
    1457.763550
 20
    1572.358887
 40
      11.000000
 50
      92.155968
 51
     167.299942
  0
POLYLINE
  8
0
 66
     1
 10
       0.000000
 20
       0.000000
 30
       0.000000
  0
VERTEX
  8
0
 10
    2310.194824
 20
    1952.755859
 30
       0.000000
  0
VERTEX
  8
0
 10
    2311.628418
 20
    1948.468872
 30
       0.000000
  0
VERTEX
  8
0
 10
    2312.779297
 20
    1943.588135
 30
       0.000000
  0
VERTEX
  8
0
 10
    2313.493652
 20
    1938.703735
 30
       0.000000
  0
VERTEX
  8
0
 10
    2313.780273
 20
    1934.068115
 30
       0.000000
  0
SEQEND
  8
0
  0
POLYLINE
  8
0
 66
     1
 10
       0.000000
 20
       0.000000
 30
       0.000000
  0
VERTEX
  8
0
 10
    2850.032227
 20
    1940.476196
 30
       0.000000
  0
VERTEX
  8
0
 10
    2850.487305
 20
    1943.588135
 30
       0.000000
  0
VERTEX
  8
0
 10
    2851.638184
 20
    1948.468872
 30
       0.000000
  0
VERTEX
  8
0
 10
    2853.071777
 20
    1952.755859
 30
       0.000000
  0
SEQEND
  8
0
  0
POLYLINE
  8
0
 66
     1
 10
       0.000000
 20
       0.000000
 30
       0.000000
  0
VERTEX
  8
0
 10
    1596.846802
 20
     506.443970
 30
       0.000000
  0
VERTEX
  8
0
 10
    1596.585083
 20
     506.018188
 30
       0.000000
  0
VERTEX
  8
0
 10
    1587.646606
 20
     493.199829
 30
       0.000000
  0
VERTEX
  8
0
 10
    1577.721802
 20
     480.738892
 30
       0.000000
  0
VERTEX
  8
0
 10
    1566.771606
 20
     468.781860
 30
       0.000000
  0
VERTEX
  8
0
 10
    1554.777466
 20
     457.506470
 30
       0.000000
  0
VERTEX
  8
0
 10
    1541.747192
 20
     447.108032
 30
       0.000000
  0
VERTEX
  8
0
 10
    1527.715942
 20
     437.795532
 30
       0.000000
  0
VERTEX
  8
0
 10
    1512.761841
 20
     429.789673
 30
       0.000000
  0
VERTEX
  8
0
 10
    1496.999146
 20
     423.297485
 30
       0.000000
  0
VERTEX
  8
0
 10
    1480.585083
 20
     418.508423
 30
       0.000000
  0
VERTEX
  8
0
 10
    1463.713989
 20
     415.570923
 30
       0.000000
  0
VERTEX
  8
0
 10
    1446.606323
 20
     414.580688
 30
       0.000000
  0
SEQEND
  8
0
  0
POLYLINE
  8
0
 66
     1
 10
       0.000000
 20
       0.000000
 30
       0.000000
  0
VERTEX
  8
0
 10
    1596.845825
 20
     863.067017
 30
       0.000000
  0
VERTEX
  8
0
 10
    1596.584106
 20
     863.492798
 30
       0.000000
  0
VERTEX
  8
0
 10
    1587.645630
 20
     876.313110
 30
       0.000000
  0
VERTEX
  8
0
 10
    1577.720825
 20
     888.774048
 30
       0.000000
  0
VERTEX
  8
0
 10
    1566.770630
 20
     900.729126
 30
       0.000000
  0
VERTEX
  8
0
 10
    1554.776489
 20
     912.004517
 30
       0.000000
  0
VERTEX
  8
0
 10
    1541.746216
 20
     922.404907
 30
       0.000000
  0
VERTEX
  8
0
 10
    1527.714966
 20
     931.717285
 30
       0.000000
  0
VERTEX
  8
0
 10
    1512.760864
 20
     939.723145
 30
       0.000000
  0
VERTEX
  8
0
 10
    1496.998169
 20
     946.215332
 30
       0.000000
  0
VERTEX
  8
0
 10
    1480.584106
 20
     951.004395
 30
       0.000000
  0
VERTEX
  8
0
 10
    1463.713013
 20
     953.942017
 30
       0.000000
  0
VERTEX
  8
0
 10
    1446.605591
 20
     954.932251
 30
       0.000000
  0
SEQEND
  8
0
  0
POLYLINE
  8
0
 66
     1
 10
       0.000000
 20
       0.000000
 30
       0.000000
  0
VERTEX
  8
0
 10
    1618.081665
 20
     704.617432
 30
       0.000000
  0
VERTEX
  8
0
 10
    1617.180542
 20
     706.380371
 30
       0.000000
  0
VERTEX
  8
0
 10
    1616.071411
 20
     708.048584
 30
       0.000000
  0
VERTEX
  8
0
 10
    1614.748901
 20
     709.457764
 30
       0.000000
  0
VERTEX
  8
0
 10
    1613.242554
 20
     710.415039
 30
       0.000000
  0
VERTEX
  8
0
 10
    1611.628296
 20
     710.756104
 30
       0.000000
  0
SEQEND
  8
0
  0
POLYLINE
  8
0
 66
     1
 10
       0.000000
 20
       0.000000
 30
       0.000000
  0
VERTEX
  8
0
 10
    1611.628296
 20
     710.756104
 30
       0.000000
  0
VERTEX
  8
0
 10
    1610.014038
 20
     710.415039
 30
       0.000000
  0
VERTEX
  8
0
 10
    1608.507690
 20
     709.457764
 30
       0.000000
  0
VERTEX
  8
0
 10
    1607.184937
 20
     708.048584
 30
       0.000000
  0
VERTEX
  8
0
 10
    1606.076050
 20
     706.380371
 30
       0.000000
  0
VERTEX
  8
0
 10
    1605.174927
 20
     704.617432
 30
       0.000000
  0
VERTEX
  8
0
 10
    1604.455444
 20
     702.872559
 30
       0.000000
  0
VERTEX
  8
0
 10
    1603.885620
 20
     701.210205
 30
       0.000000
  0
VERTEX
  8
0
 10
    1603.434448
 20
     699.660645
 30
       0.000000
  0
VERTEX
  8
0
 10
    1603.076294
 20
     698.231934
 30
       0.000000
  0
VERTEX
  8
0
 10
    1602.790405
 20
     696.920654
 30
       0.000000
  0
VERTEX
  8
0
 10
    1602.560425
 20
     695.717285
 30
       0.000000
  0
VERTEX
  8
0
 10
    1601.997192
 20
     691.753418
 30
       0.000000
  0
VERTEX
  8
0
 10
    1601.676636
 20
     687.311279
 30
       0.000000
  0
VERTEX
  8
0
 10
    1601.742310
 20
     680.842041
 30
       0.000000
  0
VERTEX
  8
0
 10
    1602.560425
 20
     673.794922
 30
       0.000000
  0
VERTEX
  8
0
 10
    1602.790405
 20
     672.591553
 30
       0.000000
  0
VERTEX
  8
0
 10
    1603.076294
 20
     671.280273
 30
       0.000000
  0
VERTEX
  8
0
 10
    1603.434448
 20
     669.851562
 30
       0.000000
  0
VERTEX
  8
0
 10
    1603.885620
 20
     668.302002
 30
       0.000000
  0
VERTEX
  8
0
 10
    1604.455444
 20
     666.639648
 30
       0.000000
  0
VERTEX
  8
0
 10
    1605.174927
 20
     664.894775
 30
       0.000000
  0
VERTEX
  8
0
 10
    1606.076050
 20
     663.131836
 30
       0.000000
  0
VERTEX
  8
0
 10
    1607.184937
 20
     661.463623
 30
       0.000000
  0
VERTEX
  8
0
 10
    1608.507690
 20
     660.054443
 30
       0.000000
  0
VERTEX
  8
0
 10
    1610.014038
 20
     659.097168
 30
       0.000000
  0
VERTEX
  8
0
 10
    1611.628296
 20
     658.756104
 30
       0.000000
  0
VERTEX
  8
0
 10
    1613.242554
 20
     659.097168
 30
       0.000000
  0
VERTEX
  8
0
 10
    1614.748901
 20
     660.054443
 30
       0.000000
  0
VERTEX
  8
0
 10
    1616.071655
 20
     661.463623
 30
       0.000000
  0
VERTEX
  8
0
 10
    1617.180542
 20
     663.131836
 30
       0.000000
  0
VERTEX
  8
0
 10
    1618.081665
 20
     664.894775
 30
       0.000000
  0
VERTEX
  8
0
 10
    1618.801147
 20
     666.639648
 30
       0.000000
  0
VERTEX
  8
0
 10
    1619.370972
 20
     668.302002
 30
       0.000000
  0
VERTEX
  8
0
 10
    1619.822144
 20
     669.851562
 30
       0.000000
  0
VERTEX
  8
0
 10
    1620.180298
 20
     671.280273
 30
       0.000000
  0
VERTEX
  8
0
 10
    1620.466187
 20
     672.591553
 30
       0.000000
  0
VERTEX
  8
0
 10
    1620.696167
 20
     673.794922
 30
       0.000000
  0
VERTEX
  8
0
 10
    1620.882202
 20
     674.901611
 30
       0.000000
  0
VERTEX
  8
0
 10
    1621.343140
 20
     678.590820
 30
       0.000000
  0
VERTEX
  8
0
 10
    1621.601440
 20
     682.853516
 30
       0.000000
  0
VERTEX
  8
0
 10
    1621.468384
 20
     689.386475
 30
       0.000000
  0
VERTEX
  8
0
 10
    1620.466187
 20
     696.920654
 30
       0.000000
  0
VERTEX
  8
0
 10
    1620.180298
 20
     698.231934
 30
       0.000000
  0
VERTEX
  8
0
 10
    1619.822144
 20
     699.660645
 30
       0.000000
  0
VERTEX
  8
0
 10
    1619.370972
 20
     701.210205
 30
       0.000000
  0
VERTEX
  8
0
 10
    1618.801147
 20
     702.872559
 30
       0.000000
  0
VERTEX
  8
0
 10
    1618.081665
 20
     704.617432
 30
       0.000000
  0
SEQEND
  8
0
  0
CIRCLE
  8
0
 10
    1411.631958
 20
     684.756470
 40
      26.000002
  0
TEXT
  8
0
 10
    2214.967285
 20
     918.088257
 40
     100.000008
 50
       0.000058
 51
       0.000000
 41
       0.746667
  1
SANIFORM PLUS
  7
DIN-6776
 72
     5
 11
    2918.967285
 21
     918.088989
  0
TEXT
  8
0
 10
    3021.634766
 20
     551.424561
 40
      66.666672
 50
       0.000117
 51
       0.000000
 41
       0.910000
  1
410
  7
DIN-6776
 72
     5
 11
    3123.468018
 21
     551.424744
  0
TEXT
  8
0
 10
    2688.300781
 20
     551.424561
 40
      66.666672
 50
       0.000108
 51
       0.000000
 41
       0.910000
  1
700
  7
DIN-6776
 72
     5
 11
    2800.967529
 21
     551.424744
  0
TEXT
  8
0
 10
    2348.301758
 20
     551.424561
 40
      66.666672
 50
       0.000086
 51
       0.000000
 41
       0.910000
  1
1700
  7
DIN-6776
 72
     5
 11
    2493.468506
 21
     551.424805
  0
TEXT
  8
0
 10
    2014.967773
 20
     551.424072
 40
      66.666672
 50
       0.000069
 51
       0.000000
 41
       0.910000
  1
363-1
  7
DIN-6776
 72
     5
 11
    2199.134521
 21
     551.424316
  0
TEXT
  8
0
 10
    3014.966797
 20
     751.424072
 40
      66.666672
 50
       0.000076
 51
       0.000000
 41
       0.910000
  1
Tiefe
  7
DIN-6776
 72
     5
 11
    3181.800049
 21
     751.424316
  0
TEXT
  8
0
 10
    2681.634277
 20
     751.424072
 40
      66.666672
 50
       0.000065
 51
       0.000000
 41
       0.910000
  1
Breite
  7
DIN-6776
 72
     5
 11
    2880.404297
 21
     751.424316
  0
TEXT
  8
0
 10
    2348.300293
 20
     751.424072
 40
      66.666672
 50
       0.000054
 51
       0.000000
 41
       0.910000
  1
Laenge
  7
DIN-6776
 72
     5
 11
    2590.967041
 21
     751.424316
  0
TEXT
  8
0
 10
    2014.966797
 20
     751.423828
 40
      66.666672
 50
       0.000062
 51
       0.000000
 41
       0.910000
  1
Modell
  7
DIN-6776
 72
     5
 11
    2222.966797
 21
     751.424072
  0
ENDSEC
  0
EOF
