  0
SECTION
  2
HEADER
  9
$ACADVER
  1
AC1009
  9
$ANGBASE
 50
       0.000000
  9
$ANGDIR
 70
     0
  9
$ATTDIA
 70
     0
  9
$ATTMODE
 70
     0
  9
$ATTREQ
 70
     0
  9
$AUNITS
 70
     0
  9
$AUPREC
 70
     1
  9
$BLIPMODE
 70
     1
  9
$CECOLOR
 62
   256
  9
$CELTYPE
  6
BYLAYER
  9
$CHAMFERA
 40
       0.000000
  9
$CHAMFERB
 40
       0.000000
  9
$CLAYER
  8
0
  9
$COORDS
 70
     1
  9
$DIMALT
 70
     0
  9
$DIMALTD
 70
     2
  9
$DIMALTF
 40
      25.400000
  9
$DIMAPOST
  1

  9
$DIMASO
 70
     0
  9
$DIMASZ
 40
       3.500000
  9
$DIMBLK
  1

  9
$DIMBLK1
  1

  9
$DIMBLK2
  1

  9
$DIMCEN
 40
       1.500000
  9
$DIMCLRD
 70
     0
  9
$DIMCLRE
 70
     0
  9
$DIMCLRT
 70
     0
  9
$DIMDLE
 40
       0.000000
  9
$DIMDLI
 40
       7.000000
  9
$DIMEXE
 40
       1.800000
  9
$DIMEXO
 40
       0.100000
  9
$DIMGAP
 40
       0.090000
  9
$DIMLFAC
 40
       1.000000
  9
$DIMLIM
 70
     0
  9
$DIMPOST
  1

  9
$DIMRND
 40
       0.000000
  9
$DIMSAH
 70
     0
  9
$DIMSCALE
 40
       1.000000
  9
$DIMSE1
 70
     0
  9
$DIMSE2
 70
     0
  9
$DIMSHO
 70
     1
  9
$DIMSOXD
 70
     0
  9
$DIMSTYLE
  2
*UNNAMED
  9
$DIMTAD
 70
     1
  9
$DIMTFAC
 40
       1.000000
  9
$DIMTIH
 70
     0
  9
$DIMTIX
 70
     0
  9
$DIMTM
 40
       0.000000
  9
$DIMTOFL
 70
     0
  9
$DIMTOH
 70
     0
  9
$DIMTOL
 70
     0
  9
$DIMTP
 40
       0.000000
  9
$DIMTSZ
 40
       0.000000
  9
$DIMTVP
 40
       0.000000
  9
$DIMTXT
 40
       3.500000
  9
$DIMZIN
 70
     0
  9
$DRAGMODE
 70
     2
  9
$DWGCODEPAGE
  3
iso8859-1
  9
$ELEVATION
 40
       0.000000
  9
$EXTMAX
 10
    3226.599609
 20
    2371.895996
 30
       0.000000
  9
$EXTMIN
 10
       0.000000
 20
       0.000000
 30
       0.000000
  9
$FILLETRAD
 40
       0.000000
  9
$FILLMODE
 70
     1
  9
$HANDLING
 70
     0
  9
$HANDSEED
  5
0
  9
$INSBASE
 10
       0.000000
 20
       0.000000
 30
       0.000000
  9
$LIMCHECK
 70
     0
  9
$LIMMAX
 10
    3226.599609
 20
    2371.895996
  9
$LIMMIN
 10
       0.000000
 20
       0.000000
  9
$LTSCALE
 40
       1.000000
  9
$LUNITS
 70
     2
  9
$LUPREC
 70
     2
  9
$MAXACTVP
 70
    16
  9
$MENU
  1
ACAD
  9
$MIRRTEXT
 70
     0
  9
$ORTHOMODE
 70
     0
  9
$OSMODE
 70
     0
  9
$PDMODE
 70
     0
  9
$PDSIZE
 40
       0.000000
  9
$PELEVATION
 40
       0.000000
  9
$PEXTMAX
 10
    3226.599609
 20
    2371.895996
 30
       0.000000
  9
$PEXTMIN
 10
       0.000000
 20
       0.000000
 30
       0.000000
  9
$PINSBASE
 10
       0.000000
 20
       0.000000
 30
       0.000000
  9
$PLIMCHECK
 70
     0
  9
$PLIMMAX
 10
    3226.599609
 20
    2371.895996
  9
$PLIMMIN
 10
       0.000000
 20
       0.000000
  9
$PLINEGEN
 70
     0
  9
$PLINEWID
 40
       0.000000
  9
$PSLTSCALE
 70
     1
  9
$PUCSNAME
  2

  9
$PUCSORG
 10
       0.000000
 20
       0.000000
 30
       0.000000
  9
$PUCSXDIR
 10
       1.000000
 20
       0.000000
 30
       0.000000
  9
$PUCSYDIR
 10
       0.000000
 20
       1.000000
 30
       0.000000
  9
$QTEXTMODE
 70
     0
  9
$REGENMODE
 70
     1
  9
$SHADEDGE
 70
     3
  9
$SHADEDIF
 70
    70
  9
$SKETCHINC
 40
       1.000000
  9
$SKPOLY
 70
     0
  9
$SPLFRAME
 70
     0
  9
$SPLINESEGS
 70
     8
  9
$SPLINETYPE
 70
     6
  9
$SURFTAB1
 70
     6
  9
$SURFTAB2
 70
     6
  9
$SURFTYPE
 70
     6
  9
$SURFU
 70
     6
  9
$SURFV
 70
     6
  9
$TDCREATE
 40
2454382.4798611109
  9
$TDINDWG
 40
       0.000000
  9
$TDUPDATE
 40
2454382.4798611109
  9
$TDUSRTIMER
 40
       0.000000
  9
$TEXTSIZE
 40
       3.500000
  9
$TEXTSTYLE
  7
STANDARD
  9
$THICKNESS
 40
       0.000000
  9
$TILEMODE
 70
     1
  9
$TRACEWID
 40
       1.000000
  9
$TREEDEPTH
 70
 -3020
  9
$UCSNAME
  2

  9
$UCSORG
 10
       0.000000
 20
       0.000000
 30
       0.000000
  9
$UCSXDIR
 10
       1.000000
 20
       0.000000
 30
       0.000000
  9
$UCSYDIR
 10
       0.000000
 20
       1.000000
 30
       0.000000
  9
$UNITMODE
 70
     0
  9
$USERI1
 70
     0
  9
$USERI2
 70
     0
  9
$USERI3
 70
     0
  9
$USERI4
 70
     0
  9
$USERI5
 70
     0
  9
$USERR1
 40
       0.000000
  9
$USERR2
 40
       0.000000
  9
$USERR3
 40
       0.000000
  9
$USERR4
 40
       0.000000
  9
$USERR5
 40
       0.000000
  9
$USRTIMER
 70
     0
  9
$VISRETAIN
 70
     0
  9
$WORLDVIEW
 70
     1
  0
ENDSEC
  0
SECTION
  2
TABLES
  0
TABLE
  2
LTYPE
 70
   137
  0
LTYPE
  2
AUSGEZOGEN
 70
     0
  3
________________________________
 72
    65
 73
     2
 40
16.
 49
16.
 49
0.
  0
LTYPE
  2
VERDECKTE_KANTE
 70
     0
  3
__________________________
 72
    65
 73
     2
 40
5.
 49
4.063
 49
-0.938
  0
LTYPE
  2
HILFSLINIE
 70
     0
  3
________________________________
 72
    65
 73
     2
 40
16.
 49
16.
 49
0.
  0
LTYPE
  2
BRUCHLINIE
 70
     0
  3
________________________________
 72
    65
 73
     2
 40
16.
 49
16.
 49
0.
  0
LTYPE
  2
MITTELLINIE
 70
     0
  3
_______________________   ___
 72
    65
 73
     4
 40
13.
 49
9.34
 49
-1.22
 49
1.22
 49
-1.22
  0
LTYPE
  2
SCHNITTLINIE
 70
     0
  3
_______________________   ___
 72
    65
 73
     4
 40
13.
 49
9.34
 49
-1.22
 49
1.22
 49
-1.22
  0
LTYPE
  2
SCHWERLINIE
 70
     0
  3
______________________  __  __
 72
    65
 73
     6
 40
15.
 49
10.31
 49
-0.94
 49
0.94
 49
-0.94
 49
0.94
 49
-0.94
  0
LTYPE
  2
ENTWURFSLINIE
 70
     0
  3
__      __      __      __
 72
    65
 73
     8
 40
16.
 49
1.
 49
-3.
 49
1.
 49
-3.
 49
1.
 49
-3.
 49
1.
 49
-3.
  0
LTYPE
  2
SONDERLINIE1
 70
     0
  3
________________________________
 72
    65
 73
     2
 40
16.
 49
16.
 49
0.
  0
LTYPE
  2
SONDERLINIE2
 70
     0
  3
______________________  __  __
 72
    65
 73
     6
 40
15.
 49
10.31
 49
-0.94
 49
0.94
 49
-0.94
 49
0.94
 49
-0.94
  0
LTYPE
  2
SONDERLINIE3
 70
     0
  3
__________________  __  __  __
 72
    65
 73
     8
 40
16.
 49
9.
 49
-1.
 49
1.
 49
-1.
 49
1.
 49
-1.
 49
1.
 49
-1.
  0
LTYPE
  2
SONDERLINIE4
 70
     0
  3
__________________  __  __  __
 72
    65
 73
     8
 40
16.
 49
9.
 49
-1.
 49
1.
 49
-1.
 49
1.
 49
-1.
 49
1.
 49
-1.
  0
LTYPE
  2
SONDERLINIE5
 70
     0
  3
______________  __  __  __  __
 72
    65
 73
    10
 40
16.
 49
7.
 49
-1.
 49
1.
 49
-1.
 49
1.
 49
-1.
 49
1.
 49
-1.
 49
1.
 49
-1.
  0
LTYPE
  2
SONDERLINIE6
 70
     0
  3
______________  __  __  __  __
 72
    65
 73
    10
 40
16.
 49
7.
 49
-1.
 49
1.
 49
-1.
 49
1.
 49
-1.
 49
1.
 49
-1.
 49
1.
 49
-1.
  0
LTYPE
  2
SONDERLINIE7
 70
     0
  3
__________  __  __  __  __  __
 72
    65
 73
    12
 40
16.
 49
5.
 49
-1.
 49
1.
 49
-1.
 49
1.
 49
-1.
 49
1.
 49
-1.
 49
1.
 49
-1.
 49
1.
 49
-1.
  0
LTYPE
  2
SONDERLINIE8
 70
     0
  3
__________  __  __  __  __  __
 72
    65
 73
    12
 40
16.
 49
5.
 49
-1.
 49
1.
 49
-1.
 49
1.
 49
-1.
 49
1.
 49
-1.
 49
1.
 49
-1.
 49
1.
 49
-1.
  0
LTYPE
  2
HEIZUNG-VORLAUF
 70
     0
  3
 
 72
    65
 73
     2
 40
16.
 49
16.
 49
0.
  0
LTYPE
  2
HEIZUNG-RUECKLAUF
 70
     0
  3
 
 72
    65
 73
     2
 40
5.
 49
4.063
 49
-0.938
  0
LTYPE
  2
TRINKWASSER-KALT
 70
     0
  3
 
 72
    65
 73
     2
 40
16.
 49
16.
 49
0.
  0
LTYPE
  2
TRINKWASSER-WARM
 70
     0
  3
 
 72
    65
 73
     2
 40
5.
 49
4.063
 49
-0.938
  0
LTYPE
  2
TRINKWASSER-ZIRKULATION
 70
     0
  3
 
 72
    65
 73
     4
 40
13.
 49
9.34
 49
-1.22
 49
1.22
 49
-1.22
  0
LTYPE
  2
SANITAER-SCHMUTZWASSER
 70
     0
  3
 
 72
    65
 73
     2
 40
16.
 49
16.
 49
0.
  0
LTYPE
  2
SANITAER-REGENWASSER
 70
     0
  3
 
 72
    65
 73
     2
 40
5.
 49
4.063
 49
-0.938
  0
LTYPE
  2
SANITAER-MISCHWASSER
 70
     0
  3
 
 72
    65
 73
     4
 40
13.
 49
9.34
 49
-1.22
 49
1.22
 49
-1.22
  0
LTYPE
  2
SANITAER-ENTLUEFTUNG
 70
     0
  3
 
 72
    65
 73
     2
 40
5.
 49
4.063
 49
-0.938
  0
LTYPE
  2
SPRINKLER
 70
     0
  3
 
 72
    65
 73
     2
 40
16.
 49
16.
 49
0.
  0
LTYPE
  2
WERKWASSER
 70
     0
  3
 
 72
    65
 73
     2
 40
16.
 49
16.
 49
0.
  0
LTYPE
  2
KUEHLWASSER-VL
 70
     0
  3
 
 72
    65
 73
     2
 40
16.
 49
16.
 49
0.
  0
LTYPE
  2
KUEHLWASSER-RL-D
 70
     0
  3
 
 72
    65
 73
     2
 40
5.
 49
4.063
 49
-0.938
  0
LTYPE
  2
KUEHLWASSER-RL-DI
 70
     0
  3
 
 72
    65
 73
     2
 40
5.
 49
4.063
 49
-0.938
  0
LTYPE
  2
KALTWASSER-KAELTEANL--VL
 70
     0
  3
 
 72
    65
 73
     2
 40
16.
 49
16.
 49
0.
  0
LTYPE
  2
KALTWASSER-KAELTEANL--RL
 70
     0
  3
 
 72
    65
 73
     2
 40
5.
 49
4.063
 49
-0.938
  0
LTYPE
  2
SCHLEIFEMULSION
 70
     0
  3
 
 72
    65
 73
     2
 40
16.
 49
16.
 49
0.
  0
LTYPE
  2
BOHREMULSION
 70
     0
  3
 
 72
    65
 73
     2
 40
16.
 49
16.
 49
0.
  0
LTYPE
  2
SCHNEIDEMULSION
 70
     0
  3
 
 72
    65
 73
     2
 40
16.
 49
16.
 49
0.
  0
LTYPE
  2
DRUCKLUFT-HAUPTNETZ
 70
     0
  3
 
 72
    65
 73
     2
 40
16.
 49
16.
 49
0.
  0
LTYPE
  2
DRUCKLUFT-HOCHDRUCKNETZ
 70
     0
  3
 
 72
    65
 73
     2
 40
16.
 49
16.
 49
0.
  0
LTYPE
  2
DRUCKLUFT-NIEDERDRUCKNETZ
 70
     0
  3
 
 72
    65
 73
     2
 40
16.
 49
16.
 49
0.
  0
LTYPE
  2
MISCHWASSER-DRUCK
 70
     0
  3
 
 72
    65
 73
     2
 40
16.
 49
16.
 49
0.
  0
LTYPE
  2
MISCHWASSER-KANAL
 70
     0
  3
 
 72
    65
 73
     2
 40
16.
 49
16.
 49
0.
  0
LTYPE
  2
OELHALTIGES-ABWASSER-DRUCK
 70
     0
  3
 
 72
    65
 73
     2
 40
16.
 49
16.
 49
0.
  0
LTYPE
  2
OELHALTIGES-ABWASSER-KANAL
 70
     0
  3
 
 72
    65
 73
     2
 40
16.
 49
16.
 49
0.
  0
LTYPE
  2
REGENWASSER-DRUCK
 70
     0
  3
 
 72
    65
 73
     2
 40
16.
 49
16.
 49
0.
  0
LTYPE
  2
REGENWASSER-KANAL
 70
     0
  3
 
 72
    65
 73
     2
 40
16.
 49
16.
 49
0.
  0
LTYPE
  2
SCHMUTZWASSER-DRUCK
 70
     0
  3
 
 72
    65
 73
     2
 40
16.
 49
16.
 49
0.
  0
LTYPE
  2
SCHMUTZWASSER-KANAL
 70
     0
  3
 
 72
    65
 73
     2
 40
16.
 49
16.
 49
0.
  0
LTYPE
  2
ALTEMULSION
 70
     0
  3
 
 72
    65
 73
     2
 40
16.
 49
16.
 49
0.
  0
LTYPE
  2
ALTWASCHWASSER
 70
     0
  3
 
 72
    65
 73
     2
 40
16.
 49
16.
 49
0.
  0
LTYPE
  2
CHROMHALTIGES-SPUELWASSER
 70
     0
  3
 
 72
    65
 73
     2
 40
16.
 49
16.
 49
0.
  0
LTYPE
  2
CYANIDHALTIGES-SPUELWASSER
 70
     0
  3
 
 72
    65
 73
     2
 40
16.
 49
16.
 49
0.
  0
LTYPE
  2
GEKLAERTES-ABWASSER
 70
     0
  3
 
 72
    65
 73
     2
 40
16.
 49
16.
 49
0.
  0
LTYPE
  2
NITRITHALTIGES-SPUELWASSER
 70
     0
  3
 
 72
    65
 73
     2
 40
16.
 49
16.
 49
0.
  0
LTYPE
  2
SAURES-ALKALISCHES-ELUAT
 70
     0
  3
 
 72
    65
 73
     2
 40
16.
 49
16.
 49
0.
  0
LTYPE
  2
SAURES-ALKALISCHES-SPUELWASSER
 70
     0
  3
 
 72
    65
 73
     2
 40
16.
 49
16.
 49
0.
  0
LTYPE
  2
AMIDASULFONSAEURE
 70
     0
  3
 
 72
    65
 73
     2
 40
16.
 49
16.
 49
0.
  0
LTYPE
  2
CHROMHALTIGES-KONZENTRAT
 70
     0
  3
 
 72
    65
 73
     2
 40
16.
 49
16.
 49
0.
  0
LTYPE
  2
CYANIDHALTIGES-KONZENTRAT
 70
     0
  3
 
 72
    65
 73
     2
 40
16.
 49
16.
 49
0.
  0
LTYPE
  2
ELEKTROLYT
 70
     0
  3
 
 72
    65
 73
     2
 40
16.
 49
16.
 49
0.
  0
LTYPE
  2
NATRIUMBISULFIT
 70
     0
  3
 
 72
    65
 73
     2
 40
16.
 49
16.
 49
0.
  0
LTYPE
  2
NATRIUMHYPOCHLORIT
 70
     0
  3
 
 72
    65
 73
     2
 40
16.
 49
16.
 49
0.
  0
LTYPE
  2
NATRONLAUGE
 70
     0
  3
 
 72
    65
 73
     2
 40
16.
 49
16.
 49
0.
  0
LTYPE
  2
NITRITHALTIGES-KONZENTRAT
 70
     0
  3
 
 72
    65
 73
     2
 40
16.
 49
16.
 49
0.
  0
LTYPE
  2
PHOSPHORSAEURE
 70
     0
  3
 
 72
    65
 73
     2
 40
16.
 49
16.
 49
0.
  0
LTYPE
  2
SALPETERSAEURE
 70
     0
  3
 
 72
    65
 73
     2
 40
16.
 49
16.
 49
0.
  0
LTYPE
  2
SALZSAEURE
 70
     0
  3
 
 72
    65
 73
     2
 40
16.
 49
16.
 49
0.
  0
LTYPE
  2
SCHWEFELSAEURE
 70
     0
  3
 
 72
    65
 73
     2
 40
16.
 49
16.
 49
0.
  0
LTYPE
  2
BETRIEBSWAERME-RL
 70
     0
  3
 
 72
    65
 73
     2
 40
5.
 49
4.063
 49
-0.938
  0
LTYPE
  2
BETRIEBSWAERME-VL
 70
     0
  3
 
 72
    65
 73
     2
 40
16.
 49
16.
 49
0.
  0
LTYPE
  2
WARMWASSER-VL
 70
     0
  3
 
 72
    65
 73
     2
 40
16.
 49
16.
 49
0.
  0
LTYPE
  2
WARMWASSER-ZIRKULATION
 70
     0
  3
 
 72
    65
 73
     4
 40
13.
 49
9.34
 49
-1.22
 49
1.22
 49
-1.22
  0
LTYPE
  2
ROHWASSER
 70
     0
  3
 
 72
    65
 73
     2
 40
16.
 49
16.
 49
0.
  0
LTYPE
  2
ARGON
 70
     0
  3
 
 72
    65
 73
     2
 40
16.
 49
16.
 49
0.
  0
LTYPE
  2
CORGON
 70
     0
  3
 
 72
    65
 73
     2
 40
16.
 49
16.
 49
0.
  0
LTYPE
  2
KOHLENDIOXID
 70
     0
  3
 
 72
    65
 73
     2
 40
16.
 49
16.
 49
0.
  0
LTYPE
  2
STICKSTOFF
 70
     0
  3
 
 72
    65
 73
     2
 40
16.
 49
16.
 49
0.
  0
LTYPE
  2
AZETYLEN
 70
     0
  3
 
 72
    65
 73
     2
 40
16.
 49
16.
 49
0.
  0
LTYPE
  2
ERDGAS
 70
     0
  3
 
 72
    65
 73
     2
 40
16.
 49
16.
 49
0.
  0
LTYPE
  2
SAUERSTOFF--TECHNISCH-REIN
 70
     0
  3
 
 72
    65
 73
     2
 40
16.
 49
16.
 49
0.
  0
LTYPE
  2
TRAEGERGAS
 70
     0
  3
 
 72
    65
 73
     2
 40
16.
 49
16.
 49
0.
  0
LTYPE
  2
WASSERSTOFF
 70
     0
  3
 
 72
    65
 73
     2
 40
16.
 49
16.
 49
0.
  0
LTYPE
  2
KRAFTSTOFF-GK-A-I-D
 70
     0
  3
 
 72
    65
 73
     2
 40
16.
 49
16.
 49
0.
  0
LTYPE
  2
KRAFTSTOFF-SONDER-D
 70
     0
  3
 
 72
    65
 73
     2
 40
16.
 49
16.
 49
0.
  0
LTYPE
  2
ACHSOEL
 70
     0
  3
 
 72
    65
 73
     2
 40
16.
 49
16.
 49
0.
  0
LTYPE
  2
ALTOEL
 70
     0
  3
 
 72
    65
 73
     2
 40
16.
 49
16.
 49
0.
  0
LTYPE
  2
BOHROEL
 70
     0
  3
 
 72
    65
 73
     2
 40
16.
 49
16.
 49
0.
  0
LTYPE
  2
ERODIEROEL
 70
     0
  3
 
 72
    65
 73
     2
 40
16.
 49
16.
 49
0.
  0
LTYPE
  2
FETT
 70
     0
  3
 
 72
    65
 73
     2
 40
16.
 49
16.
 49
0.
  0
LTYPE
  2
GETRIEBEOEL
 70
     0
  3
 
 72
    65
 73
     2
 40
16.
 49
16.
 49
0.
  0
LTYPE
  2
HAERTEOEL
 70
     0
  3
 
 72
    65
 73
     2
 40
16.
 49
16.
 49
0.
  0
LTYPE
  2
HONOEL
 70
     0
  3
 
 72
    65
 73
     2
 40
16.
 49
16.
 49
0.
  0
LTYPE
  2
HYDRAULIKOEL
 70
     0
  3
 
 72
    65
 73
     2
 40
16.
 49
16.
 49
0.
  0
LTYPE
  2
MOTOROEL
 70
     0
  3
 
 72
    65
 73
     2
 40
16.
 49
16.
 49
0.
  0
LTYPE
  2
NORMALSPUELOEL
 70
     0
  3
 
 72
    65
 73
     2
 40
16.
 49
16.
 49
0.
  0
LTYPE
  2
RAEUMOEL
 70
     0
  3
 
 72
    65
 73
     2
 40
16.
 49
16.
 49
0.
  0
LTYPE
  2
SCHLEIFOEL
 70
     0
  3
 
 72
    65
 73
     2
 40
16.
 49
16.
 49
0.
  0
LTYPE
  2
SCHNEIDOEL
 70
     0
  3
 
 72
    65
 73
     2
 40
16.
 49
16.
 49
0.
  0
LTYPE
  2
SONDERSPUELOEL
 70
     0
  3
 
 72
    65
 73
     2
 40
16.
 49
16.
 49
0.
  0
LTYPE
  2
ZIEHOEL
 70
     0
  3
 
 72
    65
 73
     2
 40
16.
 49
16.
 49
0.
  0
LTYPE
  2
MONTAGEOEL
 70
     0
  3
 
 72
    65
 73
     2
 40
16.
 49
16.
 49
0.
  0
LTYPE
  2
MONTAGE-GLEITOEL
 70
     0
  3
 
 72
    65
 73
     2
 40
16.
 49
16.
 49
0.
  0
LTYPE
  2
SPUELOEL
 70
     0
  3
 
 72
    65
 73
     2
 40
16.
 49
16.
 49
0.
  0
LTYPE
  2
TIEFBOHROEL
 70
     0
  3
 
 72
    65
 73
     2
 40
16.
 49
16.
 49
0.
  0
LTYPE
  2
AMIN
 70
     0
  3
 
 72
    65
 73
     2
 40
16.
 49
16.
 49
0.
  0
LTYPE
  2
HAERTER
 70
     0
  3
 
 72
    65
 73
     2
 40
16.
 49
16.
 49
0.
  0
LTYPE
  2
HARZ
 70
     0
  3
 
 72
    65
 73
     2
 40
16.
 49
16.
 49
0.
  0
LTYPE
  2
LOESEMITTEL
 70
     0
  3
 
 72
    65
 73
     2
 40
16.
 49
16.
 49
0.
  0
LTYPE
  2
LACK
 70
     0
  3
 
 72
    65
 73
     2
 40
16.
 49
16.
 49
0.
  0
LTYPE
  2
WASCHWASSER
 70
     0
  3
 
 72
    65
 73
     2
 40
16.
 49
16.
 49
0.
  0
LTYPE
  2
GLEITSCHLEIFWASSER
 70
     0
  3
 
 72
    65
 73
     2
 40
16.
 49
16.
 49
0.
  0
LTYPE
  2
VERDUENNUNG
 70
     0
  3
 
 72
    65
 73
     2
 40
16.
 49
16.
 49
0.
  0
LTYPE
  2
KUEHLDECKEN-VORLAUF
 70
     0
  3
 
 72
    65
 73
     2
 40
16.
 49
16.
 49
0.
  0
LTYPE
  2
KUEHLDECKEN-RUECKLAUF
 70
     0
  3
 
 72
    65
 73
     2
 40
5.
 49
4.063
 49
-0.938
  0
LTYPE
  2
KONDENSAT
 70
     0
  3
 
 72
    65
 73
     2
 40
16.
 49
16.
 49
0.
  0
LTYPE
  2
KONDENSAT-REINDAMPF
 70
     0
  3
 
 72
    65
 73
     2
 40
16.
 49
16.
 49
0.
  0
LTYPE
  2
KONDENSAT-HOCHDRUCK
 70
     0
  3
 
 72
    65
 73
     2
 40
16.
 49
16.
 49
0.
  0
LTYPE
  2
DAMPF
 70
     0
  3
 
 72
    65
 73
     2
 40
16.
 49
16.
 49
0.
  0
LTYPE
  2
REINDAMPF
 70
     0
  3
 
 72
    65
 73
     2
 40
16.
 49
16.
 49
0.
  0
LTYPE
  2
DAMPF-HOCHDRUCK
 70
     0
  3
 
 72
    65
 73
     2
 40
16.
 49
16.
 49
0.
  0
LTYPE
  2
KLIMA-ZENTRALE
 70
     0
  3
 
 72
    65
 73
     2
 40
16.
 49
16.
 49
0.
  0
LTYPE
  2
KLIMA-AUSSENLUFT
 70
     0
  3
 
 72
    65
 73
     4
 40
13.
 49
9.34
 49
-1.22
 49
1.22
 49
-1.22
  0
LTYPE
  2
KLIMA-ZULUFT-I
 70
     0
  3
 
 72
    65
 73
     2
 40
16.
 49
16.
 49
0.
  0
LTYPE
  2
KLIMA-ZULUFT-II
 70
     0
  3
 
 72
    65
 73
     2
 40
16.
 49
16.
 49
0.
  0
LTYPE
  2
KLIMA-ZULUFT-III
 70
     0
  3
 
 72
    65
 73
     2
 40
16.
 49
16.
 49
0.
  0
LTYPE
  2
KLIMA-ZULUFT-IV
 70
     0
  3
 
 72
    65
 73
     2
 40
16.
 49
16.
 49
0.
  0
LTYPE
  2
KLIMA-UMLUFT
 70
     0
  3
 
 72
    65
 73
     2
 40
5.
 49
4.063
 49
-0.938
  0
LTYPE
  2
KLIMA-MISCHLUFT
 70
     0
  3
 
 72
    65
 73
     6
 40
11.
 49
3.78
 49
-1.03
 49
3.78
 49
-1.03
 49
0.34
 49
-1.03
  0
LTYPE
  2
KLIMA-ABLUFT
 70
     0
  3
 
 72
    65
 73
     2
 40
5.
 49
4.063
 49
-0.938
  0
LTYPE
  2
KLIMA-FORTLUFT
 70
     0
  3
 
 72
    65
 73
     2
 40
5.
 49
4.063
 49
-0.938
  0
LTYPE
  2
ENTRAUCHUNG
 70
     0
  3
 
 72
    65
 73
     2
 40
5.
 49
4.063
 49
-0.938
  0
LTYPE
  2
ELEKTRO-ZENTRALE
 70
     0
  3
 
 72
    65
 73
     2
 40
16.
 49
16.
 49
0.
  0
LTYPE
  2
STROMSCHIENEN
 70
     0
  3
 
 72
    65
 73
     2
 40
16.
 49
16.
 49
0.
  0
LTYPE
  2
ELEKTRO-LEITUNGSFUEHRUNG
 70
     0
  3
 
 72
    65
 73
     2
 40
16.
 49
16.
 49
0.
  0
LTYPE
  2
ELEKTRO-KABELTRAEGER
 70
     0
  3
 
 72
    65
 73
     2
 40
16.
 49
16.
 49
0.
  0
LTYPE
  2
INNENWAND
 70
     0
  3
 
 72
    65
 73
     2
 40
16.
 49
16.
 49
0.
  0
LTYPE
  2
AUSSENWAND
 70
     0
  3
 
 72
    65
 73
     2
 40
16.
 49
16.
 49
0.
  0
LTYPE
  2
ERDBERUEHREND
 70
     0
  3
 
 72
    65
 73
     2
 40
16.
 49
16.
 49
0.
  0
LTYPE
  2
REINWASSER
 70
     0
  3
 
 72
    65
 73
     2
 40
16.
 49
16.
 49
0.
  0
ENDTAB
  0
TABLE
  2
LAYER
 70
   152
  0
LAYER
  2
PUNKT
 62
     8
  6
HILFSLINIE
 70
    64
  0
LAYER
  2
SICHTBARE_KANTE
 62
     7
  6
AUSGEZOGEN
 70
    64
  0
LAYER
  2
VERDECKTE_KANTE
 62
     8
  6
VERDECKTE_KANTE
 70
    64
  0
LAYER
  2
HILFSLINIE
 62
     8
  6
HILFSLINIE
 70
    64
  0
LAYER
  2
BRUCHLINIE
 62
     8
  6
BRUCHLINIE
 70
    64
  0
LAYER
  2
MITTELLINIE
 62
     8
  6
MITTELLINIE
 70
    64
  0
LAYER
  2
SCHNITTLINIE
 62
     7
  6
SCHNITTLINIE
 70
    64
  0
LAYER
  2
SCHWERLINIE
 62
     8
  6
SCHWERLINIE
 70
    64
  0
LAYER
  2
ENTWURFSLINIE
 62
     7
  6
ENTWURFSLINIE
 70
    64
  0
LAYER
  2
SONDERLINIE1
 62
     8
  6
SONDERLINIE1
 70
    64
  0
LAYER
  2
SONDERLINIE2
 62
     8
  6
SONDERLINIE2
 70
    64
  0
LAYER
  2
SONDERLINIE3
 62
     8
  6
SONDERLINIE3
 70
    64
  0
LAYER
  2
SONDERLINIE4
 62
     8
  6
SONDERLINIE4
 70
    64
  0
LAYER
  2
SONDERLINIE5
 62
     8
  6
SONDERLINIE5
 70
    64
  0
LAYER
  2
SONDERLINIE6
 62
     8
  6
SONDERLINIE6
 70
    64
  0
LAYER
  2
SONDERLINIE7
 62
     8
  6
SONDERLINIE7
 70
    64
  0
LAYER
  2
SONDERLINIE8
 62
     8
  6
SONDERLINIE8
 70
    64
  0
LAYER
  2
TEXT
 62
     7
  6
HILFSLINIE
 70
    64
  0
LAYER
  2
SCHRAFFUR
 62
     8
  6
HILFSLINIE
 70
    64
  0
LAYER
  2
SYMBOLE
 62
     7
  6
AUSGEZOGEN
 70
    64
  0
LAYER
  2
FERTIGUNGSBEMASSUNG
 62
     8
  6
HILFSLINIE
 70
    64
  0
LAYER
  2
TOPOLOGIEBEMASSUNG
 62
     8
  6
HILFSLINIE
 70
    64
  0
LAYER
  2
OBERFLAECHENZEICHEN
 62
     8
  6
HILFSLINIE
 70
    64
  0
LAYER
  2
FORM-LAGE-TOLERANZEN
 62
     8
  6
HILFSLINIE
 70
    64
  0
LAYER
  2
SCHWEISSZEICHEN
 62
     8
  6
HILFSLINIE
 70
    64
  0
LAYER
  2
FUNKTIONSBEMASSUNG
 62
     8
  6
HILFSLINIE
 70
    64
  0
LAYER
  2
PRUEFBEMASSUNG
 62
     8
  6
HILFSLINIE
 70
    64
  0
LAYER
  2
MONTAGEBEMASSUNG
 62
     8
  6
HILFSLINIE
 70
    64
  0
LAYER
  2
BG_FORM-LAGE-TOLERANZEN
 62
     8
  6
HILFSLINIE
 70
    64
  0
LAYER
  2
BG_SCHWEISSZEICHEN
 62
     8
  6
HILFSLINIE
 70
    64
  0
LAYER
  2
HEIZUNG-VORLAUF
 62
     8
  6
HEIZUNG-VORLAUF
 70
    64
  0
LAYER
  2
HEIZUNG-RUECKLAUF
 62
     8
  6
HEIZUNG-RUECKLAUF
 70
    64
  0
LAYER
  2
TRINKWASSER-KALT
 62
     8
  6
TRINKWASSER-KALT
 70
    64
  0
LAYER
  2
TRINKWASSER-WARM
 62
     8
  6
TRINKWASSER-WARM
 70
    64
  0
LAYER
  2
TRINKWASSER-ZIRKULATION
 62
     8
  6
TRINKWASSER-ZIRKULATION
 70
    64
  0
LAYER
  2
SANITAER-SCHMUTZWASSER
 62
     8
  6
SANITAER-SCHMUTZWASSER
 70
    64
  0
LAYER
  2
SANITAER-REGENWASSER
 62
     8
  6
SANITAER-REGENWASSER
 70
    64
  0
LAYER
  2
SANITAER-MISCHWASSER
 62
     8
  6
SANITAER-MISCHWASSER
 70
    64
  0
LAYER
  2
SANITAER-ENTLUEFTUNG
 62
     8
  6
SANITAER-ENTLUEFTUNG
 70
    64
  0
LAYER
  2
SPRINKLER
 62
     8
  6
SPRINKLER
 70
    64
  0
LAYER
  2
WERKWASSER
 62
     8
  6
WERKWASSER
 70
    64
  0
LAYER
  2
KUEHLWASSER-VL
 62
     8
  6
KUEHLWASSER-VL
 70
    64
  0
LAYER
  2
KUEHLWASSER-RL-D
 62
     8
  6
KUEHLWASSER-RL-D
 70
    64
  0
LAYER
  2
KUEHLWASSER-RL-DI
 62
     8
  6
KUEHLWASSER-RL-DI
 70
    64
  0
LAYER
  2
KALTWASSER-KAELTEANL--VL
 62
     8
  6
KALTWASSER-KAELTEANL--VL
 70
    64
  0
LAYER
  2
KALTWASSER-KAELTEANL--RL
 62
     8
  6
KALTWASSER-KAELTEANL--RL
 70
    64
  0
LAYER
  2
SCHLEIFEMULSION
 62
     8
  6
SCHLEIFEMULSION
 70
    64
  0
LAYER
  2
BOHREMULSION
 62
     8
  6
BOHREMULSION
 70
    64
  0
LAYER
  2
SCHNEIDEMULSION
 62
     8
  6
SCHNEIDEMULSION
 70
    64
  0
LAYER
  2
DRUCKLUFT-HAUPTNETZ
 62
     8
  6
DRUCKLUFT-HAUPTNETZ
 70
    64
  0
LAYER
  2
DRUCKLUFT-HOCHDRUCKNETZ
 62
     8
  6
DRUCKLUFT-HOCHDRUCKNETZ
 70
    64
  0
LAYER
  2
DRUCKLUFT-NIEDERDRUCKNETZ
 62
     8
  6
DRUCKLUFT-NIEDERDRUCKNETZ
 70
    64
  0
LAYER
  2
MISCHWASSER-DRUCK
 62
     8
  6
MISCHWASSER-DRUCK
 70
    64
  0
LAYER
  2
MISCHWASSER-KANAL
 62
     8
  6
MISCHWASSER-KANAL
 70
    64
  0
LAYER
  2
OELHALTIGES-ABWASSER-DRUCK
 62
     8
  6
OELHALTIGES-ABWASSER-DRUCK
 70
    64
  0
LAYER
  2
OELHALTIGES-ABWASSER-KANAL
 62
     8
  6
OELHALTIGES-ABWASSER-KANAL
 70
    64
  0
LAYER
  2
REGENWASSER-DRUCK
 62
     8
  6
REGENWASSER-DRUCK
 70
    64
  0
LAYER
  2
REGENWASSER-KANAL
 62
     8
  6
REGENWASSER-KANAL
 70
    64
  0
LAYER
  2
SCHMUTZWASSER-DRUCK
 62
     8
  6
SCHMUTZWASSER-DRUCK
 70
    64
  0
LAYER
  2
SCHMUTZWASSER-KANAL
 62
     8
  6
SCHMUTZWASSER-KANAL
 70
    64
  0
LAYER
  2
ALTEMULSION
 62
     8
  6
ALTEMULSION
 70
    64
  0
LAYER
  2
ALTWASCHWASSER
 62
     8
  6
ALTWASCHWASSER
 70
    64
  0
LAYER
  2
CHROMHALTIGES-SPUELWASSER
 62
     8
  6
CHROMHALTIGES-SPUELWASSER
 70
    64
  0
LAYER
  2
CYANIDHALTIGES-SPUELWASSER
 62
     8
  6
CYANIDHALTIGES-SPUELWASSER
 70
    64
  0
LAYER
  2
GEKLAERTES-ABWASSER
 62
     8
  6
GEKLAERTES-ABWASSER
 70
    64
  0
LAYER
  2
NITRITHALTIGES-SPUELWASSER
 62
     8
  6
NITRITHALTIGES-SPUELWASSER
 70
    64
  0
LAYER
  2
SAURES-ALKALISCHES-ELUAT
 62
     8
  6
SAURES-ALKALISCHES-ELUAT
 70
    64
  0
LAYER
  2
SAURES-ALKALISCHES-SPUELWASSER
 62
     8
  6
SAURES-ALKALISCHES-SPUELWASSER
 70
    64
  0
LAYER
  2
AMIDASULFONSAEURE
 62
     8
  6
AMIDASULFONSAEURE
 70
    64
  0
LAYER
  2
CHROMHALTIGES-KONZENTRAT
 62
     8
  6
CHROMHALTIGES-KONZENTRAT
 70
    64
  0
LAYER
  2
CYANIDHALTIGES-KONZENTRAT
 62
     8
  6
CYANIDHALTIGES-KONZENTRAT
 70
    64
  0
LAYER
  2
ELEKTROLYT
 62
     8
  6
ELEKTROLYT
 70
    64
  0
LAYER
  2
NATRIUMBISULFIT
 62
     8
  6
NATRIUMBISULFIT
 70
    64
  0
LAYER
  2
NATRIUMHYPOCHLORIT
 62
     8
  6
NATRIUMHYPOCHLORIT
 70
    64
  0
LAYER
  2
NATRONLAUGE
 62
     8
  6
NATRONLAUGE
 70
    64
  0
LAYER
  2
NITRITHALTIGES-KONZENTRAT
 62
     8
  6
NITRITHALTIGES-KONZENTRAT
 70
    64
  0
LAYER
  2
PHOSPHORSAEURE
 62
     8
  6
PHOSPHORSAEURE
 70
    64
  0
LAYER
  2
SALPETERSAEURE
 62
     8
  6
SALPETERSAEURE
 70
    64
  0
LAYER
  2
SALZSAEURE
 62
     8
  6
SALZSAEURE
 70
    64
  0
LAYER
  2
SCHWEFELSAEURE
 62
     8
  6
SCHWEFELSAEURE
 70
    64
  0
LAYER
  2
BETRIEBSWAERME-RL
 62
     8
  6
BETRIEBSWAERME-RL
 70
    64
  0
LAYER
  2
BETRIEBSWAERME-VL
 62
     8
  6
BETRIEBSWAERME-VL
 70
    64
  0
LAYER
  2
WARMWASSER-VL
 62
     8
  6
WARMWASSER-VL
 70
    64
  0
LAYER
  2
WARMWASSER-ZIRKULATION
 62
     8
  6
WARMWASSER-ZIRKULATION
 70
    64
  0
LAYER
  2
ROHWASSER
 62
     8
  6
ROHWASSER
 70
    64
  0
LAYER
  2
ARGON
 62
     8
  6
ARGON
 70
    64
  0
LAYER
  2
CORGON
 62
     8
  6
CORGON
 70
    64
  0
LAYER
  2
KOHLENDIOXID
 62
     8
  6
KOHLENDIOXID
 70
    64
  0
LAYER
  2
STICKSTOFF
 62
     8
  6
STICKSTOFF
 70
    64
  0
LAYER
  2
AZETYLEN
 62
     8
  6
AZETYLEN
 70
    64
  0
LAYER
  2
ERDGAS
 62
     8
  6
ERDGAS
 70
    64
  0
LAYER
  2
SAUERSTOFF--TECHNISCH-REIN
 62
     8
  6
SAUERSTOFF--TECHNISCH-REIN
 70
    64
  0
LAYER
  2
TRAEGERGAS
 62
     8
  6
TRAEGERGAS
 70
    64
  0
LAYER
  2
WASSERSTOFF
 62
     8
  6
WASSERSTOFF
 70
    64
  0
LAYER
  2
KRAFTSTOFF-GK-A-I-D
 62
     8
  6
KRAFTSTOFF-GK-A-I-D
 70
    64
  0
LAYER
  2
KRAFTSTOFF-SONDER-D
 62
     8
  6
KRAFTSTOFF-SONDER-D
 70
    64
  0
LAYER
  2
ACHSOEL
 62
     8
  6
ACHSOEL
 70
    64
  0
LAYER
  2
ALTOEL
 62
     8
  6
ALTOEL
 70
    64
  0
LAYER
  2
BOHROEL
 62
     8
  6
BOHROEL
 70
    64
  0
LAYER
  2
ERODIEROEL
 62
     8
  6
ERODIEROEL
 70
    64
  0
LAYER
  2
FETT
 62
     8
  6
FETT
 70
    64
  0
LAYER
  2
GETRIEBEOEL
 62
     8
  6
GETRIEBEOEL
 70
    64
  0
LAYER
  2
HAERTEOEL
 62
     8
  6
HAERTEOEL
 70
    64
  0
LAYER
  2
HONOEL
 62
     8
  6
HONOEL
 70
    64
  0
LAYER
  2
HYDRAULIKOEL
 62
     8
  6
HYDRAULIKOEL
 70
    64
  0
LAYER
  2
MOTOROEL
 62
     8
  6
MOTOROEL
 70
    64
  0
LAYER
  2
NORMALSPUELOEL
 62
     8
  6
NORMALSPUELOEL
 70
    64
  0
LAYER
  2
RAEUMOEL
 62
     8
  6
RAEUMOEL
 70
    64
  0
LAYER
  2
SCHLEIFOEL
 62
     8
  6
SCHLEIFOEL
 70
    64
  0
LAYER
  2
SCHNEIDOEL
 62
     8
  6
SCHNEIDOEL
 70
    64
  0
LAYER
  2
SONDERSPUELOEL
 62
     8
  6
SONDERSPUELOEL
 70
    64
  0
LAYER
  2
ZIEHOEL
 62
     8
  6
ZIEHOEL
 70
    64
  0
LAYER
  2
MONTAGEOEL
 62
     8
  6
MONTAGEOEL
 70
    64
  0
LAYER
  2
MONTAGE-GLEITOEL
 62
     8
  6
MONTAGE-GLEITOEL
 70
    64
  0
LAYER
  2
SPUELOEL
 62
     8
  6
SPUELOEL
 70
    64
  0
LAYER
  2
TIEFBOHROEL
 62
     8
  6
TIEFBOHROEL
 70
    64
  0
LAYER
  2
AMIN
 62
     8
  6
AMIN
 70
    64
  0
LAYER
  2
HAERTER
 62
     8
  6
HAERTER
 70
    64
  0
LAYER
  2
HARZ
 62
     8
  6
HARZ
 70
    64
  0
LAYER
  2
LOESEMITTEL
 62
     8
  6
LOESEMITTEL
 70
    64
  0
LAYER
  2
LACK
 62
     8
  6
LACK
 70
    64
  0
LAYER
  2
WASCHWASSER
 62
     8
  6
WASCHWASSER
 70
    64
  0
LAYER
  2
GLEITSCHLEIFWASSER
 62
     8
  6
GLEITSCHLEIFWASSER
 70
    64
  0
LAYER
  2
VERDUENNUNG
 62
     8
  6
VERDUENNUNG
 70
    64
  0
LAYER
  2
KUEHLDECKEN-VORLAUF
 62
     8
  6
KUEHLDECKEN-VORLAUF
 70
    64
  0
LAYER
  2
KUEHLDECKEN-RUECKLAUF
 62
     8
  6
KUEHLDECKEN-RUECKLAUF
 70
    64
  0
LAYER
  2
KONDENSAT
 62
     8
  6
KONDENSAT
 70
    64
  0
LAYER
  2
KONDENSAT-REINDAMPF
 62
     8
  6
KONDENSAT-REINDAMPF
 70
    64
  0
LAYER
  2
KONDENSAT-HOCHDRUCK
 62
     8
  6
KONDENSAT-HOCHDRUCK
 70
    64
  0
LAYER
  2
DAMPF
 62
     8
  6
DAMPF
 70
    64
  0
LAYER
  2
REINDAMPF
 62
     8
  6
REINDAMPF
 70
    64
  0
LAYER
  2
DAMPF-HOCHDRUCK
 62
     8
  6
DAMPF-HOCHDRUCK
 70
    64
  0
LAYER
  2
KLIMA-ZENTRALE
 62
     8
  6
KLIMA-ZENTRALE
 70
    64
  0
LAYER
  2
KLIMA-AUSSENLUFT
 62
     8
  6
KLIMA-AUSSENLUFT
 70
    64
  0
LAYER
  2
KLIMA-ZULUFT-I
 62
     8
  6
KLIMA-ZULUFT-I
 70
    64
  0
LAYER
  2
KLIMA-ZULUFT-II
 62
     8
  6
KLIMA-ZULUFT-II
 70
    64
  0
LAYER
  2
KLIMA-ZULUFT-III
 62
     8
  6
KLIMA-ZULUFT-III
 70
    64
  0
LAYER
  2
KLIMA-ZULUFT-IV
 62
     8
  6
KLIMA-ZULUFT-IV
 70
    64
  0
LAYER
  2
KLIMA-UMLUFT
 62
     8
  6
KLIMA-UMLUFT
 70
    64
  0
LAYER
  2
KLIMA-MISCHLUFT
 62
     8
  6
KLIMA-MISCHLUFT
 70
    64
  0
LAYER
  2
KLIMA-ABLUFT
 62
     8
  6
KLIMA-ABLUFT
 70
    64
  0
LAYER
  2
KLIMA-FORTLUFT
 62
     8
  6
KLIMA-FORTLUFT
 70
    64
  0
LAYER
  2
ENTRAUCHUNG
 62
     8
  6
ENTRAUCHUNG
 70
    64
  0
LAYER
  2
ELEKTRO-ZENTRALE
 62
     8
  6
ELEKTRO-ZENTRALE
 70
    64
  0
LAYER
  2
STROMSCHIENEN
 62
     8
  6
STROMSCHIENEN
 70
    64
  0
LAYER
  2
ELEKTRO-LEITUNGSFUEHRUNG
 62
     8
  6
ELEKTRO-LEITUNGSFUEHRUNG
 70
    64
  0
LAYER
  2
ELEKTRO-KABELTRAEGER
 62
     8
  6
ELEKTRO-KABELTRAEGER
 70
    64
  0
LAYER
  2
INNENWAND
 62
     8
  6
INNENWAND
 70
    64
  0
LAYER
  2
AUSSENWAND
 62
     8
  6
AUSSENWAND
 70
    64
  0
LAYER
  2
ERDBERUEHREND
 62
     8
  6
ERDBERUEHREND
 70
    64
  0
LAYER
  2
REINWASSER
 62
     8
  6
REINWASSER
 70
    64
  0
LAYER
  2
0
 62
     7
  6
AUSGEZOGEN
 70
    64
  0
ENDTAB
  0
TABLE
  2
STYLE
 70
    23
  0
STYLE
  2
STANDARD
 70
     0
 40
     0
 41
       1.000000
 50
       0.000000
 71
     0
 42
       3.500000
  3
isocp
  4

  0
STYLE
  2
DIN-6776
 70
     0
 40
     0
 41
       1.000000
 50
       0.000000
 71
     0
 42
       3.500000
  3
isocp
  4

  0
STYLE
  2
ROMAN
 70
     0
 40
     0
 41
       1.000000
 50
       0.000000
 71
     0
 42
       3.500000
  3
romans.shx
  4

  0
STYLE
  2
SCRIPT
 70
     0
 40
     0
 41
       1.000000
 50
       0.000000
 71
     0
 42
       3.500000
  3
scripts.shx
  4

  0
STYLE
  2
GRIECHISCH
 70
     0
 40
     0
 41
       1.000000
 50
       0.000000
 71
     0
 42
       3.500000
  3
greeks.shx
  4

  0
STYLE
  2
KYRILLISCH
 70
     0
 40
     0
 41
       1.000000
 50
       0.000000
 71
     0
 42
       3.500000
  3
cyrillic.shx
  4

  0
STYLE
  2
MATH--FORMELZEICHEN
 70
     0
 40
     0
 41
       1.000000
 50
       0.000000
 71
     0
 42
       3.500000
  3
symath.shx
  4

  0
STYLE
  2
DOPPELLINIE
 70
     0
 40
     0
 41
       1.000000
 50
       0.000000
 71
     0
 42
       3.500000
  3
swissko.ttf
  4

  0
STYLE
  2
SERIFENSCHRIFT
 70
     0
 40
     0
 41
       1.000000
 50
       0.000000
 71
     0
 42
       3.500000
  3
romanc__.ttf
  4

  0
STYLE
  2
ARIAL
 70
     0
 40
     0
 41
       1.000000
 50
       0.000000
 71
     0
 42
       3.500000
  3
arial.ttf
  4

  0
STYLE
  2
ARIAL-FETT
 70
     0
 40
     0
 41
       1.000000
 50
       0.000000
 71
     0
 42
       3.500000
  3
arialbd.ttf
  4

  0
STYLE
  2
TIMES-NEW-ROMAN
 70
     0
 40
     0
 41
       1.000000
 50
       0.000000
 71
     0
 42
       3.500000
  3
times.ttf
  4

  0
STYLE
  2
TIMES-NEW-ROMAN-FETT
 70
     0
 40
     0
 41
       1.000000
 50
       0.000000
 71
     0
 42
       3.500000
  3
timesbd.ttf
  4

  0
STYLE
  2
DIN-6776-OSTEUROPA
 70
     0
 40
     0
 41
       1.000000
 50
       0.000000
 71
     0
 42
       3.500000
  3
txt
  4

  0
STYLE
  2
DIN-6776-KYRILLISCH
 70
     0
 40
     0
 41
       1.000000
 50
       0.000000
 71
     0
 42
       3.500000
  3
txt
  4

  0
STYLE
  2
ARIAL-OSTEUROPA
 70
     0
 40
     0
 41
       1.000000
 50
       0.000000
 71
     0
 42
       3.500000
  3
arial.ttf
  4

  0
STYLE
  2
ARIAL-KYRILLISCH
 70
     0
 40
     0
 41
       1.000000
 50
       0.000000
 71
     0
 42
       3.500000
  3
arial.ttf
  4

  0
STYLE
  2
ARIAL-FETT-OSTEUROPA
 70
     0
 40
     0
 41
       1.000000
 50
       0.000000
 71
     0
 42
       3.500000
  3
arialbd.ttf
  4

  0
STYLE
  2
ARIAL-FETT-KYRILLISCH
 70
     0
 40
     0
 41
       1.000000
 50
       0.000000
 71
     0
 42
       3.500000
  3
arialbd.ttf
  4

  0
STYLE
  2
TIMES-N-R-OSTEUROPA
 70
     0
 40
     0
 41
       1.000000
 50
       0.000000
 71
     0
 42
       3.500000
  3
times.ttf
  4

  0
STYLE
  2
TIMES-N-R-KYRILLISCH
 70
     0
 40
     0
 41
       1.000000
 50
       0.000000
 71
     0
 42
       3.500000
  3
times.ttf
  4

  0
STYLE
  2
TIMES-N-R-FETT-OSTEUROPA
 70
     0
 40
     0
 41
       1.000000
 50
       0.000000
 71
     0
 42
       3.500000
  3
timesbd.ttf
  4

  0
STYLE
  2
TIMES-N-R-FETT-KYRILLISCH
 70
     0
 40
     0
 41
       1.000000
 50
       0.000000
 71
     0
 42
       3.500000
  3
timesbd.ttf
  4

  0
ENDTAB
  0
TABLE
  2
VIEW
 70
     0
  0
ENDTAB
  0
TABLE
  2
VPORT
 70
     2
  0
VPORT
  2
*ACTIVE
 70
     0
 10
       0.000000
 20
       0.000000
 11
       1.000000
 21
       1.000000
 12
    1613.299805
 22
    1185.947998
 13
       0.000000
 23
       0.000000
 14
       1.000000
 24
       1.000000
 15
       0.000000
 25
       0.000000
 16
       0.000000
 26
       0.000000
 36
       1.000000
 17
       0.000000
 27
       0.000000
 37
       0.000000
 40
    2371.895996
 41
       1.360346
 42
      50.000000
 43
       0.000000
 44
       0.000000
 50
       0.000000
 51
       0.000000
 71
     0
 72
   100
 73
     1
 74
     1
 75
     0
 76
     0
 77
     0
 78
     0
  0
ENDTAB
  0
TABLE
  2
DIMSTYLE
 70
     1
  0
DIMSTYLE
  2
STDBEM
 70
     0
  3

  4

  5

  6

  7

 40
       1.000000
 41
       3.500000
 42
       0.100000
 43
       7.000000
 44
       1.800000
 45
       0.000000
 46
       0.000000
 47
       0.000000
 48
       0.000000
140
       3.500000
141
       1.500000
142
       0.000000
143
      25.400000
144
       1.000000
145
       0.000000
146
       1.000000
147
       0.090000
 71
     0
 72
     0
 73
     0
 74
     0
 75
     0
 76
     0
 77
     1
 78
     0
170
     0
171
     2
172
     0
173
     0
174
     0
175
     0
176
     0
177
     0
178
     0
  0
ENDTAB
  0
ENDSEC
  0
SECTION
  2
BLOCKS
  0
ENDSEC
  0
SECTION
  2
ENTITIES
  0
CIRCLE
  8
VERDECKTE_KANTE
 10
    2581.632812
 20
    1951.447876
 40
      25.999998
  0
LINE
  8
HILFSLINIE
 10
     241.632828
 20
    1970.447876
 11
    1521.632812
 21
    1970.447876
  0
LINE
  8
HILFSLINIE
 10
    3194.965576
 20
     718.447998
 11
    1968.300781
 21
     718.447998
  0
LINE
  8
HILFSLINIE
 10
    1331.632812
 20
     593.447998
 11
     549.683594
 21
     593.449951
  0
LINE
  8
HILFSLINIE
 10
    1331.632812
 20
     843.447937
 11
     549.683594
 21
     843.449890
  0
ARC
  8
HILFSLINIE
 10
    2603.384766
 20
     992.094421
 40
     999.999939
 50
      76.960594
 51
      83.908119
  0
ARC
  8
HILFSLINIE
 10
    2559.880859
 20
     992.094421
 40
     999.999939
 50
      96.091873
 51
     103.039398
  0
ARC
  8
HILFSLINIE
 10
     549.683594
 20
     653.449951
 40
      59.999996
 50
     186.435959
 51
     270.000000
  0
ARC
  8
HILFSLINIE
 10
     549.683594
 20
     783.449951
 40
      59.999996
 50
      90.000000
 51
     173.565018
  0
ARC
  8
HILFSLINIE
 10
    1331.632812
 20
     718.447998
 40
     124.999977
 50
     270.000000
 51
      90.000000
  0
ARC
  8
HILFSLINIE
 10
    1126.027344
 20
     718.447998
 40
     639.999939
 50
     173.565140
 51
     186.434586
  0
LINE
  8
MITTELLINIE
 10
     881.632751
 20
    2018.447876
 11
     881.632751
 21
    1629.324829
  0
LINE
  8
MITTELLINIE
 10
    2581.632812
 20
    2018.447876
 11
    2581.632812
 21
    1600.947876
  0
LINE
  8
MITTELLINIE
 10
    1731.631836
 20
     718.447998
 11
      31.632826
 21
     718.449951
  0
LINE
  8
MITTELLINIE
 10
     881.632751
 20
    1083.448975
 11
     881.632751
 21
     353.449005
  0
LINE
  8
MITTELLINIE
 10
    1411.632812
 20
    2018.447876
 11
    1411.632812
 21
    1601.447876
  0
LINE
  8
SICHTBARE_KANTE
 10
      31.632826
 20
    2012.447876
 11
      31.632826
 21
    1992.447876
  0
LINE
  8
SICHTBARE_KANTE
 10
    1731.632812
 20
    2012.447876
 11
    1731.632812
 21
    1992.447876
  0
LINE
  8
SICHTBARE_KANTE
 10
      37.632820
 20
    2018.447876
 11
    1725.632812
 21
    2018.447876
  0
LINE
  8
SICHTBARE_KANTE
 10
    1725.632812
 20
    1986.447876
 11
      37.632820
 21
    1986.447876
  0
LINE
  8
SICHTBARE_KANTE
 10
    1385.011719
 20
    1601.447876
 11
    1438.251953
 21
    1601.447876
  0
LINE
  8
SICHTBARE_KANTE
 10
     486.505859
 20
    1639.672485
 11
    1365.882812
 21
    1616.645142
  0
LINE
  8
SICHTBARE_KANTE
 10
    2607.632812
 20
    1600.947876
 11
    2555.632812
 21
    1600.947876
  0
LINE
  8
SICHTBARE_KANTE
 10
    2216.632812
 20
    1992.447876
 11
    2216.632812
 21
    2012.447876
  0
LINE
  8
SICHTBARE_KANTE
 10
    2946.632812
 20
    1992.447876
 11
    2946.632812
 21
    2012.447876
  0
LINE
  8
SICHTBARE_KANTE
 10
    2940.632812
 20
    2018.447876
 11
    2222.632812
 21
    2018.447876
  0
LINE
  8
SICHTBARE_KANTE
 10
    2940.632812
 20
    1986.447876
 11
    2222.632812
 21
    1986.447876
  0
LINE
  8
SICHTBARE_KANTE
 10
    1708.632812
 20
     353.448029
 11
      54.634773
 21
     353.449982
  0
LINE
  8
SICHTBARE_KANTE
 10
    1708.631836
 20
    1083.447998
 11
      54.632820
 21
    1083.449951
  0
LINE
  8
SICHTBARE_KANTE
 10
      31.632826
 20
    1060.449951
 11
      31.634779
 21
     376.449982
  0
LINE
  8
SICHTBARE_KANTE
 10
    1731.632812
 20
     376.448029
 11
    1731.631836
 21
    1060.447998
  0
LINE
  8
SICHTBARE_KANTE
 10
    2537.830078
 20
    1615.926880
 11
    2625.435547
 21
    1615.930298
  0
LINE
  8
SICHTBARE_KANTE
 10
    1365.882812
 20
    1616.645142
 11
    1457.349609
 21
    1617.042603
  0
ARC
  8
SICHTBARE_KANTE
 10
      37.632820
 20
    2012.447876
 40
       6.000000
 50
      90.000000
 51
     180.000000
  0
ARC
  8
SICHTBARE_KANTE
 10
      37.632820
 20
    1992.447876
 40
       6.000000
 50
     180.000000
 51
     270.000000
  0
ARC
  8
SICHTBARE_KANTE
 10
    1725.632812
 20
    2012.447876
 40
       6.000000
 50
       0.000000
 51
      90.000000
  0
ARC
  8
SICHTBARE_KANTE
 10
    1725.632812
 20
    1992.447876
 40
       6.000000
 50
     270.000000
 51
       0.000000
  0
ARC
  8
SICHTBARE_KANTE
 10
      56.476570
 20
    1927.279907
 40
      87.000038
 50
      29.259304
 51
      42.850491
  0
ARC
  8
SICHTBARE_KANTE
 10
    1443.619141
 20
    2704.415771
 40
    1502.999756
 50
     209.259399
 51
     220.501221
  0
ARC
  8
SICHTBARE_KANTE
 10
   -2359.163818
 20
    2183.674561
 40
    4002.999756
 50
     355.898193
 51
     357.175903
  0
ARC
  8
SICHTBARE_KANTE
 10
    1131.871094
 20
    1933.324829
 40
     502.999969
 50
     348.772827
 51
     355.898132
  0
ARC
  8
SICHTBARE_KANTE
 10
    1451.593750
 20
    1769.934204
 40
     152.999969
 50
     272.155945
 51
     343.416748
  0
ARC
  8
SICHTBARE_KANTE
 10
     445.265594
 20
    2069.614014
 40
    1202.999878
 50
     343.416718
 51
     348.772858
  0
ARC
  8
SICHTBARE_KANTE
 10
    1438.251953
 20
    1610.447876
 40
       8.999999
 50
     270.000000
 51
     347.300568
  0
ARC
  8
SICHTBARE_KANTE
 10
    1385.011719
 20
    1610.447876
 40
       8.999999
 50
     193.884689
 51
     270.000000
  0
ARC
  8
SICHTBARE_KANTE
 10
     493.128906
 20
    1892.585571
 40
     252.999985
 50
     220.501251
 51
     268.499908
  0
ARC
  8
SICHTBARE_KANTE
 10
    3512.182373
 20
    2072.816162
 40
    1203.000000
 50
     185.013611
 51
     198.959763
  0
ARC
  8
SICHTBARE_KANTE
 10
    2462.403320
 20
    1712.172485
 40
      92.999916
 50
     198.959579
 51
     266.323822
  0
ARC
  8
SICHTBARE_KANTE
 10
    2581.632812
 20
    3618.447998
 40
    2002.999756
 50
     266.416534
 51
     268.746918
  0
ARC
  8
SICHTBARE_KANTE
 10
    2700.862305
 20
    1712.172485
 40
      93.000015
 50
     273.673126
 51
     341.040405
  0
ARC
  8
SICHTBARE_KANTE
 10
    1651.083008
 20
    2072.816162
 40
    1203.000122
 50
     341.040253
 51
     355.296387
  0
ARC
  8
SICHTBARE_KANTE
 10
    2607.979492
 20
    1610.447876
 40
       8.999999
 50
     270.000000
 51
     348.724213
  0
ARC
  8
SICHTBARE_KANTE
 10
    2625.632812
 20
    1606.932251
 40
       8.999999
 50
      91.255898
 51
     168.749802
  0
ARC
  8
SICHTBARE_KANTE
 10
    2555.286133
 20
    1610.447876
 40
       8.999999
 50
     191.275787
 51
     270.000000
  0
ARC
  8
SICHTBARE_KANTE
 10
    2537.632812
 20
    1606.932251
 40
       8.999999
 50
      11.250190
 51
      88.744095
  0
ARC
  8
SICHTBARE_KANTE
 10
    2581.632812
 20
    3618.447998
 40
    2002.999756
 50
     271.253052
 51
     273.583313
  0
ARC
  8
SICHTBARE_KANTE
 10
    2940.632812
 20
    2012.447876
 40
       6.000000
 50
       0.000000
 51
      90.000000
  0
ARC
  8
SICHTBARE_KANTE
 10
    2940.632812
 20
    1992.447876
 40
       6.000000
 50
     270.000000
 51
       0.000000
  0
ARC
  8
SICHTBARE_KANTE
 10
    2222.632812
 20
    2012.447876
 40
       6.000000
 50
      90.000000
 51
     180.000000
  0
ARC
  8
SICHTBARE_KANTE
 10
    2222.632812
 20
    1992.447876
 40
       6.000000
 50
     180.000000
 51
     270.000000
  0
ARC
  8
SICHTBARE_KANTE
 10
    1387.121094
 20
     676.209717
 40
     249.999985
 50
     327.023651
 51
     358.617157
  0
ARC
  8
SICHTBARE_KANTE
 10
    -362.367157
 20
     718.447998
 40
    1999.999878
 50
     358.616974
 51
       1.383010
  0
ARC
  8
SICHTBARE_KANTE
 10
    1387.121094
 20
     760.684326
 40
     249.999985
 50
       1.383290
 51
      32.976463
  0
ARC
  8
SICHTBARE_KANTE
 10
    1708.632812
 20
     376.448029
 40
      22.999998
 50
     270.000000
 51
       0.000000
  0
ARC
  8
SICHTBARE_KANTE
 10
    1708.631836
 20
    1060.447998
 40
      22.999998
 50
       0.000000
 51
      90.000000
  0
ARC
  8
SICHTBARE_KANTE
 10
      54.632820
 20
    1060.449951
 40
      22.999998
 50
      90.000000
 51
     180.000000
  0
ARC
  8
SICHTBARE_KANTE
 10
      54.634773
 20
     376.449982
 40
      22.999998
 50
     180.000000
 51
     270.000000
  0
ARC
  8
SICHTBARE_KANTE
 10
     476.226532
 20
   25429.433594
 40
   24999.998047
 50
     269.482117
 51
     272.224518
  0
ARC
  8
SICHTBARE_KANTE
 10
     476.218719
 20
  -23992.531250
 40
   24999.998047
 50
      87.775475
 51
      90.517845
  0
ARC
  8
SICHTBARE_KANTE
 10
     251.447281
 20
     560.449951
 40
     129.999985
 50
     190.712296
 51
     269.481781
  0
ARC
  8
SICHTBARE_KANTE
 10
     251.445328
 20
     876.449890
 40
     129.999985
 50
      90.518211
 51
     169.319901
  0
ARC
  8
SICHTBARE_KANTE
 10
    1086.632812
 20
     718.447998
 40
     979.999939
 50
     169.291641
 51
     190.712433
  0
ARC
  8
SICHTBARE_KANTE
 10
    1365.595703
 20
    1605.649048
 40
      10.999999
 50
      13.882032
 51
      88.504341
  0
ARC
  8
SICHTBARE_KANTE
 10
    1457.763672
 20
    1606.051392
 40
      10.999999
 50
      92.157242
 51
     167.301804
  0
POLYLINE
  8
SICHTBARE_KANTE
 66
     1
 10
       0.000000
 20
       0.000000
 30
       0.000000
  0
VERTEX
  8
SICHTBARE_KANTE
 10
    2310.194336
 20
    1986.447876
 30
       0.000000
  0
VERTEX
  8
SICHTBARE_KANTE
 10
    2311.627930
 20
    1982.160767
 30
       0.000000
  0
VERTEX
  8
SICHTBARE_KANTE
 10
    2312.779297
 20
    1977.279907
 30
       0.000000
  0
VERTEX
  8
SICHTBARE_KANTE
 10
    2313.493164
 20
    1972.395142
 30
       0.000000
  0
VERTEX
  8
SICHTBARE_KANTE
 10
    2313.779297
 20
    1967.760376
 30
       0.000000
  0
SEQEND
  8
SICHTBARE_KANTE
  0
POLYLINE
  8
SICHTBARE_KANTE
 66
     1
 10
       0.000000
 20
       0.000000
 30
       0.000000
  0
VERTEX
  8
SICHTBARE_KANTE
 10
    2850.031250
 20
    1974.168579
 30
       0.000000
  0
VERTEX
  8
SICHTBARE_KANTE
 10
    2850.486328
 20
    1977.279907
 30
       0.000000
  0
VERTEX
  8
SICHTBARE_KANTE
 10
    2851.637695
 20
    1982.160767
 30
       0.000000
  0
VERTEX
  8
SICHTBARE_KANTE
 10
    2853.071289
 20
    1986.447876
 30
       0.000000
  0
SEQEND
  8
SICHTBARE_KANTE
  0
POLYLINE
  8
SICHTBARE_KANTE
 66
     1
 10
       0.000000
 20
       0.000000
 30
       0.000000
  0
VERTEX
  8
SICHTBARE_KANTE
 10
    1596.846680
 20
     540.135498
 30
       0.000000
  0
VERTEX
  8
SICHTBARE_KANTE
 10
    1596.584961
 20
     539.709717
 30
       0.000000
  0
VERTEX
  8
SICHTBARE_KANTE
 10
    1587.646484
 20
     526.891357
 30
       0.000000
  0
VERTEX
  8
SICHTBARE_KANTE
 10
    1577.721680
 20
     514.430420
 30
       0.000000
  0
VERTEX
  8
SICHTBARE_KANTE
 10
    1566.771484
 20
     502.473419
 30
       0.000000
  0
VERTEX
  8
SICHTBARE_KANTE
 10
    1554.777344
 20
     491.198029
 30
       0.000000
  0
VERTEX
  8
SICHTBARE_KANTE
 10
    1541.747070
 20
     480.799591
 30
       0.000000
  0
VERTEX
  8
SICHTBARE_KANTE
 10
    1527.715820
 20
     471.487091
 30
       0.000000
  0
VERTEX
  8
SICHTBARE_KANTE
 10
    1512.761719
 20
     463.481232
 30
       0.000000
  0
VERTEX
  8
SICHTBARE_KANTE
 10
    1497.000000
 20
     456.989044
 30
       0.000000
  0
VERTEX
  8
SICHTBARE_KANTE
 10
    1480.585938
 20
     452.199982
 30
       0.000000
  0
VERTEX
  8
SICHTBARE_KANTE
 10
    1463.714844
 20
     449.262482
 30
       0.000000
  0
VERTEX
  8
SICHTBARE_KANTE
 10
    1446.605469
 20
     448.272247
 30
       0.000000
  0
SEQEND
  8
SICHTBARE_KANTE
  0
POLYLINE
  8
SICHTBARE_KANTE
 66
     1
 10
       0.000000
 20
       0.000000
 30
       0.000000
  0
VERTEX
  8
SICHTBARE_KANTE
 10
    1596.845703
 20
     896.758484
 30
       0.000000
  0
VERTEX
  8
SICHTBARE_KANTE
 10
    1596.583984
 20
     897.184265
 30
       0.000000
  0
VERTEX
  8
SICHTBARE_KANTE
 10
    1587.645508
 20
     910.004578
 30
       0.000000
  0
VERTEX
  8
SICHTBARE_KANTE
 10
    1577.720703
 20
     922.465515
 30
       0.000000
  0
VERTEX
  8
SICHTBARE_KANTE
 10
    1566.770508
 20
     934.420593
 30
       0.000000
  0
VERTEX
  8
SICHTBARE_KANTE
 10
    1554.776367
 20
     945.695984
 30
       0.000000
  0
VERTEX
  8
SICHTBARE_KANTE
 10
    1541.746094
 20
     956.096375
 30
       0.000000
  0
VERTEX
  8
SICHTBARE_KANTE
 10
    1527.714844
 20
     965.408875
 30
       0.000000
  0
VERTEX
  8
SICHTBARE_KANTE
 10
    1512.760742
 20
     973.414734
 30
       0.000000
  0
VERTEX
  8
SICHTBARE_KANTE
 10
    1496.998047
 20
     979.906921
 30
       0.000000
  0
VERTEX
  8
SICHTBARE_KANTE
 10
    1480.583984
 20
     984.695984
 30
       0.000000
  0
VERTEX
  8
SICHTBARE_KANTE
 10
    1463.712891
 20
     987.633484
 30
       0.000000
  0
VERTEX
  8
SICHTBARE_KANTE
 10
    1446.605469
 20
     988.623718
 30
       0.000000
  0
SEQEND
  8
SICHTBARE_KANTE
  0
POLYLINE
  8
SICHTBARE_KANTE
 66
     1
 10
       0.000000
 20
       0.000000
 30
       0.000000
  0
VERTEX
  8
SICHTBARE_KANTE
 10
    1618.081055
 20
     738.309326
 30
       0.000000
  0
VERTEX
  8
SICHTBARE_KANTE
 10
    1617.179688
 20
     740.072998
 30
       0.000000
  0
VERTEX
  8
SICHTBARE_KANTE
 10
    1616.071289
 20
     741.740967
 30
       0.000000
  0
VERTEX
  8
SICHTBARE_KANTE
 10
    1614.748047
 20
     743.150146
 30
       0.000000
  0
VERTEX
  8
SICHTBARE_KANTE
 10
    1613.242188
 20
     744.107178
 30
       0.000000
  0
VERTEX
  8
SICHTBARE_KANTE
 10
    1611.627930
 20
     744.447998
 30
       0.000000
  0
SEQEND
  8
SICHTBARE_KANTE
  0
POLYLINE
  8
SICHTBARE_KANTE
 66
     1
 10
       0.000000
 20
       0.000000
 30
       0.000000
  0
VERTEX
  8
SICHTBARE_KANTE
 10
    1611.627930
 20
     744.447998
 30
       0.000000
  0
VERTEX
  8
SICHTBARE_KANTE
 10
    1610.013672
 20
     744.107178
 30
       0.000000
  0
VERTEX
  8
SICHTBARE_KANTE
 10
    1608.507812
 20
     743.150146
 30
       0.000000
  0
VERTEX
  8
SICHTBARE_KANTE
 10
    1607.184570
 20
     741.740967
 30
       0.000000
  0
VERTEX
  8
SICHTBARE_KANTE
 10
    1606.076172
 20
     740.072998
 30
       0.000000
  0
VERTEX
  8
SICHTBARE_KANTE
 10
    1605.174805
 20
     738.309326
 30
       0.000000
  0
VERTEX
  8
SICHTBARE_KANTE
 10
    1604.455078
 20
     736.565186
 30
       0.000000
  0
VERTEX
  8
SICHTBARE_KANTE
 10
    1603.884766
 20
     734.902100
 30
       0.000000
  0
VERTEX
  8
SICHTBARE_KANTE
 10
    1603.433594
 20
     733.352295
 30
       0.000000
  0
VERTEX
  8
SICHTBARE_KANTE
 10
    1603.076172
 20
     731.924561
 30
       0.000000
  0
VERTEX
  8
SICHTBARE_KANTE
 10
    1602.790039
 20
     730.613037
 30
       0.000000
  0
VERTEX
  8
SICHTBARE_KANTE
 10
    1602.560547
 20
     729.408936
 30
       0.000000
  0
VERTEX
  8
SICHTBARE_KANTE
 10
    1601.997070
 20
     725.446045
 30
       0.000000
  0
VERTEX
  8
SICHTBARE_KANTE
 10
    1601.675781
 20
     721.003662
 30
       0.000000
  0
VERTEX
  8
SICHTBARE_KANTE
 10
    1601.742188
 20
     714.533936
 30
       0.000000
  0
VERTEX
  8
SICHTBARE_KANTE
 10
    1602.560547
 20
     707.487061
 30
       0.000000
  0
VERTEX
  8
SICHTBARE_KANTE
 10
    1602.790039
 20
     706.283936
 30
       0.000000
  0
VERTEX
  8
SICHTBARE_KANTE
 10
    1603.076172
 20
     704.972412
 30
       0.000000
  0
VERTEX
  8
SICHTBARE_KANTE
 10
    1603.433594
 20
     703.543701
 30
       0.000000
  0
VERTEX
  8
SICHTBARE_KANTE
 10
    1603.884766
 20
     701.993896
 30
       0.000000
  0
VERTEX
  8
SICHTBARE_KANTE
 10
    1604.455078
 20
     700.331787
 30
       0.000000
  0
VERTEX
  8
SICHTBARE_KANTE
 10
    1605.174805
 20
     698.586670
 30
       0.000000
  0
VERTEX
  8
SICHTBARE_KANTE
 10
    1606.076172
 20
     696.823975
 30
       0.000000
  0
VERTEX
  8
SICHTBARE_KANTE
 10
    1607.184570
 20
     695.156006
 30
       0.000000
  0
VERTEX
  8
SICHTBARE_KANTE
 10
    1608.507812
 20
     693.746826
 30
       0.000000
  0
VERTEX
  8
SICHTBARE_KANTE
 10
    1610.013672
 20
     692.789795
 30
       0.000000
  0
VERTEX
  8
SICHTBARE_KANTE
 10
    1611.627930
 20
     692.447998
 30
       0.000000
  0
VERTEX
  8
SICHTBARE_KANTE
 10
    1613.242188
 20
     692.789795
 30
       0.000000
  0
VERTEX
  8
SICHTBARE_KANTE
 10
    1614.748047
 20
     693.746826
 30
       0.000000
  0
VERTEX
  8
SICHTBARE_KANTE
 10
    1616.071289
 20
     695.156006
 30
       0.000000
  0
VERTEX
  8
SICHTBARE_KANTE
 10
    1617.179688
 20
     696.823975
 30
       0.000000
  0
VERTEX
  8
SICHTBARE_KANTE
 10
    1618.081055
 20
     698.586670
 30
       0.000000
  0
VERTEX
  8
SICHTBARE_KANTE
 10
    1618.800781
 20
     700.331787
 30
       0.000000
  0
VERTEX
  8
SICHTBARE_KANTE
 10
    1619.371094
 20
     701.993896
 30
       0.000000
  0
VERTEX
  8
SICHTBARE_KANTE
 10
    1619.822266
 20
     703.543701
 30
       0.000000
  0
VERTEX
  8
SICHTBARE_KANTE
 10
    1620.179688
 20
     704.972412
 30
       0.000000
  0
VERTEX
  8
SICHTBARE_KANTE
 10
    1620.465820
 20
     706.283936
 30
       0.000000
  0
VERTEX
  8
SICHTBARE_KANTE
 10
    1620.695312
 20
     707.487061
 30
       0.000000
  0
VERTEX
  8
SICHTBARE_KANTE
 10
    1620.881836
 20
     708.593506
 30
       0.000000
  0
VERTEX
  8
SICHTBARE_KANTE
 10
    1621.342773
 20
     712.282959
 30
       0.000000
  0
VERTEX
  8
SICHTBARE_KANTE
 10
    1621.601562
 20
     716.545654
 30
       0.000000
  0
VERTEX
  8
SICHTBARE_KANTE
 10
    1621.467773
 20
     723.078857
 30
       0.000000
  0
VERTEX
  8
SICHTBARE_KANTE
 10
    1620.465820
 20
     730.613037
 30
       0.000000
  0
VERTEX
  8
SICHTBARE_KANTE
 10
    1620.179688
 20
     731.924561
 30
       0.000000
  0
VERTEX
  8
SICHTBARE_KANTE
 10
    1619.822266
 20
     733.352295
 30
       0.000000
  0
VERTEX
  8
SICHTBARE_KANTE
 10
    1619.371094
 20
     734.902100
 30
       0.000000
  0
VERTEX
  8
SICHTBARE_KANTE
 10
    1618.800781
 20
     736.565186
 30
       0.000000
  0
VERTEX
  8
SICHTBARE_KANTE
 10
    1618.081055
 20
     738.309326
 30
       0.000000
  0
SEQEND
  8
SICHTBARE_KANTE
  0
CIRCLE
  8
SICHTBARE_KANTE
 10
    1411.632812
 20
     718.447998
 40
      26.000000
  0
TEXT
  8
TEXT
  6
AUSGEZOGEN
 10
    2214.966797
 20
     951.779968
 40
     100.000000
 50
       0.000039
 51
       0.000000
 41
       0.754247
  1
SANIFORM PLUS
  7
DIN-6776
 72
     5
 11
    2918.966797
 21
     951.780457
  0
TEXT
  8
TEXT
  6
AUSGEZOGEN
 10
    3021.634766
 20
     585.116943
 40
      66.666664
 50
       0.000000
 51
       0.000000
 41
       0.919239
  1
410
  7
DIN-6776
 72
     5
 11
    3123.468018
 21
     585.116943
  0
TEXT
  8
TEXT
  6
AUSGEZOGEN
 10
    2688.300781
 20
     585.116943
 40
      66.666664
 50
       0.000000
 51
       0.000000
 41
       0.919239
  1
730
  7
DIN-6776
 72
     5
 11
    2800.967529
 21
     585.116943
  0
TEXT
  8
TEXT
  6
AUSGEZOGEN
 10
    2348.300781
 20
     585.116943
 40
      66.666664
 50
       0.000000
 51
       0.000000
 41
       0.919239
  1
1700
  7
DIN-6776
 72
     5
 11
    2493.467529
 21
     585.116943
  0
TEXT
  8
TEXT
  6
AUSGEZOGEN
 10
    2014.966797
 20
     585.115967
 40
      66.666664
 50
       0.000000
 51
       0.000000
 41
       0.919239
  1
371-1
  7
DIN-6776
 72
     5
 11
    2188.300049
 21
     585.115967
  0
TEXT
  8
TEXT
  6
AUSGEZOGEN
 10
    3014.966797
 20
     785.115967
 40
      66.666664
 50
       0.000000
 51
       0.000000
 41
       0.919239
  1
Tiefe
  7
DIN-6776
 72
     5
 11
    3181.800049
 21
     785.115967
  0
TEXT
  8
TEXT
  6
AUSGEZOGEN
 10
    2681.633789
 20
     785.115967
 40
      66.666664
 50
       0.000000
 51
       0.000000
 41
       0.919239
  1
Breite
  7
DIN-6776
 72
     5
 11
    2880.403809
 21
     785.115967
  0
TEXT
  8
TEXT
  6
AUSGEZOGEN
 10
    2348.299805
 20
     785.115967
 40
      66.666664
 50
       0.000000
 51
       0.000000
 41
       0.919239
  1
Laenge
  7
DIN-6776
 72
     5
 11
    2590.966553
 21
     785.115967
  0
TEXT
  8
TEXT
  6
AUSGEZOGEN
 10
    2014.966797
 20
     785.115967
 40
      66.666664
 50
       0.000000
 51
       0.000000
 41
       0.919239
  1
Modell
  7
DIN-6776
 72
     5
 11
    2222.966797
 21
     785.115967
  0
ENDSEC
  0
EOF
