  0
SECTION
  2
HEADER
  9
$ACADVER
  1
AC1009
  9
$ANGBASE
 50
       0.000000
  9
$ANGDIR
 70
     0
  9
$ATTDIA
 70
     0
  9
$ATTMODE
 70
     0
  9
$ATTREQ
 70
     0
  9
$AUNITS
 70
     0
  9
$AUPREC
 70
     1
  9
$BLIPMODE
 70
     1
  9
$CECOLOR
 62
   256
  9
$CELTYPE
  6
BYLAYER
  9
$CHAMFERA
 40
       0.000000
  9
$CHAMFERB
 40
       0.000000
  9
$CLAYER
  8
0
  9
$COORDS
 70
     1
  9
$DIMALT
 70
     0
  9
$DIMALTD
 70
     2
  9
$DIMALTF
 40
      25.400000
  9
$DIMAPOST
  1

  9
$DIMASO
 70
     0
  9
$DIMASZ
 40
       3.500000
  9
$DIMBLK
  1

  9
$DIMBLK1
  1

  9
$DIMBLK2
  1

  9
$DIMCEN
 40
       1.500000
  9
$DIMCLRD
 70
     0
  9
$DIMCLRE
 70
     0
  9
$DIMCLRT
 70
     0
  9
$DIMDLE
 40
       0.000000
  9
$DIMDLI
 40
       7.000000
  9
$DIMEXE
 40
       1.800000
  9
$DIMEXO
 40
       0.100000
  9
$DIMGAP
 40
       0.090000
  9
$DIMLFAC
 40
       1.000000
  9
$DIMLIM
 70
     0
  9
$DIMPOST
  1

  9
$DIMRND
 40
       0.000000
  9
$DIMSAH
 70
     0
  9
$DIMSCALE
 40
       1.000000
  9
$DIMSE1
 70
     0
  9
$DIMSE2
 70
     0
  9
$DIMSHO
 70
     1
  9
$DIMSOXD
 70
     0
  9
$DIMSTYLE
  2
*UNNAMED
  9
$DIMTAD
 70
     1
  9
$DIMTFAC
 40
       1.000000
  9
$DIMTIH
 70
     0
  9
$DIMTIX
 70
     0
  9
$DIMTM
 40
       0.000000
  9
$DIMTOFL
 70
     0
  9
$DIMTOH
 70
     0
  9
$DIMTOL
 70
     0
  9
$DIMTP
 40
       0.000000
  9
$DIMTSZ
 40
       0.000000
  9
$DIMTVP
 40
       0.000000
  9
$DIMTXT
 40
       3.500000
  9
$DIMZIN
 70
     0
  9
$DRAGMODE
 70
     2
  9
$DWGCODEPAGE
  3
dos850
  9
$ELEVATION
 40
       0.000000
  9
$EXTMAX
 10
    3226.602539
 20
    2190.944336
 30
       0.000000
  9
$EXTMIN
 10
       0.000000
 20
       0.000000
 30
       0.000000
  9
$FILLETRAD
 40
       0.000000
  9
$FILLMODE
 70
     1
  9
$HANDLING
 70
     0
  9
$HANDSEED
  5
0
  9
$INSBASE
 10
       0.000000
 20
       0.000000
 30
       0.000000
  9
$LIMCHECK
 70
     0
  9
$LIMMAX
 10
    3226.602539
 20
    2190.944336
  9
$LIMMIN
 10
       0.000000
 20
       0.000000
  9
$LTSCALE
 40
       1.000000
  9
$LUNITS
 70
     2
  9
$LUPREC
 70
     2
  9
$MAXACTVP
 70
    16
  9
$MENU
  1
ACAD
  9
$MIRRTEXT
 70
     0
  9
$ORTHOMODE
 70
     0
  9
$OSMODE
 70
     0
  9
$PDMODE
 70
     0
  9
$PDSIZE
 40
       0.000000
  9
$PELEVATION
 40
       0.000000
  9
$PEXTMAX
 10
    3226.602539
 20
    2190.944336
 30
       0.000000
  9
$PEXTMIN
 10
       0.000000
 20
       0.000000
 30
       0.000000
  9
$PINSBASE
 10
       0.000000
 20
       0.000000
 30
       0.000000
  9
$PLIMCHECK
 70
     0
  9
$PLIMMAX
 10
    3226.602539
 20
    2190.944336
  9
$PLIMMIN
 10
       0.000000
 20
       0.000000
  9
$PLINEGEN
 70
     0
  9
$PLINEWID
 40
       0.000000
  9
$PSLTSCALE
 70
     1
  9
$PUCSNAME
  2

  9
$PUCSORG
 10
       0.000000
 20
       0.000000
 30
       0.000000
  9
$PUCSXDIR
 10
       1.000000
 20
       0.000000
 30
       0.000000
  9
$PUCSYDIR
 10
       0.000000
 20
       1.000000
 30
       0.000000
  9
$QTEXTMODE
 70
     0
  9
$REGENMODE
 70
     1
  9
$SHADEDGE
 70
     3
  9
$SHADEDIF
 70
    70
  9
$SKETCHINC
 40
       1.000000
  9
$SKPOLY
 70
     0
  9
$SPLFRAME
 70
     0
  9
$SPLINESEGS
 70
     8
  9
$SPLINETYPE
 70
     6
  9
$SURFTAB1
 70
     6
  9
$SURFTAB2
 70
     6
  9
$SURFTYPE
 70
     6
  9
$SURFU
 70
     6
  9
$SURFV
 70
     6
  9
$TDCREATE
 40
2454068.6673611109
  9
$TDINDWG
 40
       0.000000
  9
$TDUPDATE
 40
2454068.6673611109
  9
$TDUSRTIMER
 40
       0.000000
  9
$TEXTSIZE
 40
       3.500000
  9
$TEXTSTYLE
  7
STANDARD
  9
$THICKNESS
 40
       0.000000
  9
$TILEMODE
 70
     1
  9
$TRACEWID
 40
       1.000000
  9
$TREEDEPTH
 70
 -3020
  9
$UCSNAME
  2

  9
$UCSORG
 10
       0.000000
 20
       0.000000
 30
       0.000000
  9
$UCSXDIR
 10
       1.000000
 20
       0.000000
 30
       0.000000
  9
$UCSYDIR
 10
       0.000000
 20
       1.000000
 30
       0.000000
  9
$UNITMODE
 70
     0
  9
$USERI1
 70
     0
  9
$USERI2
 70
     0
  9
$USERI3
 70
     0
  9
$USERI4
 70
     0
  9
$USERI5
 70
     0
  9
$USERR1
 40
       0.000000
  9
$USERR2
 40
       0.000000
  9
$USERR3
 40
       0.000000
  9
$USERR4
 40
       0.000000
  9
$USERR5
 40
       0.000000
  9
$USRTIMER
 70
     0
  9
$VISRETAIN
 70
     0
  9
$WORLDVIEW
 70
     1
  0
ENDSEC
  0
SECTION
  2
TABLES
  0
TABLE
  2
LTYPE
 70
   137
  0
LTYPE
  2
AUSGEZOGEN
 70
     0
  3
________________________________
 72
    65
 73
     2
 40
16.
 49
16.
 49
0.
  0
LTYPE
  2
VERDECKTE_KANTE
 70
     0
  3
_________________________
 72
    65
 73
     2
 40
5.
 49
3.906
 49
-1.094
  0
LTYPE
  2
HILFSLINIE
 70
     0
  3
________________________________
 72
    65
 73
     2
 40
16.
 49
16.
 49
0.
  0
LTYPE
  2
BRUCHLINIE
 70
     0
  3
________________________________
 72
    65
 73
     2
 40
16.
 49
16.
 49
0.
  0
LTYPE
  2
MITTELLINIE
 70
     0
  3
________________________   __
 72
    65
 73
     4
 40
13.
 49
9.75
 49
-1.22
 49
0.81
 49
-1.22
  0
LTYPE
  2
SCHNITTLINIE
 70
     0
  3
________________________   __
 72
    65
 73
     4
 40
13.
 49
9.75
 49
-1.22
 49
0.81
 49
-1.22
  0
LTYPE
  2
SCHWERLINIE
 70
     0
  3
_____________________  __  __
 72
    65
 73
     6
 40
15.
 49
9.84
 49
-0.94
 49
0.94
 49
-0.94
 49
0.94
 49
-1.41
  0
LTYPE
  2
ENTWURFSLINIE
 70
     0
  3
__      __      __      __
 72
    65
 73
     8
 40
16.
 49
1.
 49
-3.
 49
1.
 49
-3.
 49
1.
 49
-3.
 49
1.
 49
-3.
  0
LTYPE
  2
SONDERLINIE1
 70
     0
  3
________________________________
 72
    65
 73
     2
 40
16.
 49
16.
 49
0.
  0
LTYPE
  2
SONDERLINIE2
 70
     0
  3
________________________________
 72
    65
 73
     2
 40
16.
 49
16.
 49
0.
  0
LTYPE
  2
SONDERLINIE3
 70
     0
  3
________________________________
 72
    65
 73
     2
 40
16.
 49
16.
 49
0.
  0
LTYPE
  2
SONDERLINIE4
 70
     0
  3
__________________  __  __  __
 72
    65
 73
     8
 40
16.
 49
9.
 49
-1.
 49
1.
 49
-1.
 49
1.
 49
-1.
 49
1.
 49
-1.
  0
LTYPE
  2
SONDERLINIE5
 70
     0
  3
______________  __  __  __  __
 72
    65
 73
    10
 40
16.
 49
7.
 49
-1.
 49
1.
 49
-1.
 49
1.
 49
-1.
 49
1.
 49
-1.
 49
1.
 49
-1.
  0
LTYPE
  2
SONDERLINIE6
 70
     0
  3
______________  __  __  __  __
 72
    65
 73
    10
 40
16.
 49
7.
 49
-1.
 49
1.
 49
-1.
 49
1.
 49
-1.
 49
1.
 49
-1.
 49
1.
 49
-1.
  0
LTYPE
  2
SONDERLINIE7
 70
     0
  3
__________  __  __  __  __  __
 72
    65
 73
    12
 40
16.
 49
5.
 49
-1.
 49
1.
 49
-1.
 49
1.
 49
-1.
 49
1.
 49
-1.
 49
1.
 49
-1.
 49
1.
 49
-1.
  0
LTYPE
  2
SONDERLINIE8
 70
     0
  3
__________  __  __  __  __  __
 72
    65
 73
    12
 40
16.
 49
5.
 49
-1.
 49
1.
 49
-1.
 49
1.
 49
-1.
 49
1.
 49
-1.
 49
1.
 49
-1.
 49
1.
 49
-1.
  0
LTYPE
  2
HEIZUNG-VORLAUF
 70
     0
  3
 
 72
    65
 73
     2
 40
16.
 49
16.
 49
0.
  0
LTYPE
  2
HEIZUNG-RUECKLAUF
 70
     0
  3
 
 72
    65
 73
     2
 40
5.
 49
4.063
 49
-0.938
  0
LTYPE
  2
TRINKWASSER-KALT
 70
     0
  3
 
 72
    65
 73
     2
 40
16.
 49
16.
 49
0.
  0
LTYPE
  2
TRINKWASSER-WARM
 70
     0
  3
 
 72
    65
 73
     2
 40
5.
 49
4.063
 49
-0.938
  0
LTYPE
  2
TRINKWASSER-ZIRKULATION
 70
     0
  3
 
 72
    65
 73
     4
 40
13.
 49
9.34
 49
-1.22
 49
1.22
 49
-1.22
  0
LTYPE
  2
SANITAER-SCHMUTZWASSER
 70
     0
  3
 
 72
    65
 73
     2
 40
16.
 49
16.
 49
0.
  0
LTYPE
  2
SANITAER-REGENWASSER
 70
     0
  3
 
 72
    65
 73
     2
 40
5.
 49
4.063
 49
-0.938
  0
LTYPE
  2
SANITAER-MISCHWASSER
 70
     0
  3
 
 72
    65
 73
     4
 40
13.
 49
9.34
 49
-1.22
 49
1.22
 49
-1.22
  0
LTYPE
  2
SANITAER-ENTLUEFTUNG
 70
     0
  3
 
 72
    65
 73
     2
 40
5.
 49
4.063
 49
-0.938
  0
LTYPE
  2
SPRINKLER
 70
     0
  3
 
 72
    65
 73
     2
 40
16.
 49
16.
 49
0.
  0
LTYPE
  2
WERKWASSER
 70
     0
  3
 
 72
    65
 73
     2
 40
16.
 49
16.
 49
0.
  0
LTYPE
  2
KUEHLWASSER-VL
 70
     0
  3
 
 72
    65
 73
     2
 40
16.
 49
16.
 49
0.
  0
LTYPE
  2
KUEHLWASSER-RL-D
 70
     0
  3
 
 72
    65
 73
     2
 40
5.
 49
4.063
 49
-0.938
  0
LTYPE
  2
KUEHLWASSER-RL-DI
 70
     0
  3
 
 72
    65
 73
     2
 40
5.
 49
4.063
 49
-0.938
  0
LTYPE
  2
KALTWASSER-KAELTEANL--VL
 70
     0
  3
 
 72
    65
 73
     2
 40
16.
 49
16.
 49
0.
  0
LTYPE
  2
KALTWASSER-KAELTEANL--RL
 70
     0
  3
 
 72
    65
 73
     2
 40
5.
 49
4.063
 49
-0.938
  0
LTYPE
  2
SCHLEIFEMULSION
 70
     0
  3
 
 72
    65
 73
     2
 40
16.
 49
16.
 49
0.
  0
LTYPE
  2
BOHREMULSION
 70
     0
  3
 
 72
    65
 73
     2
 40
16.
 49
16.
 49
0.
  0
LTYPE
  2
SCHNEIDEMULSION
 70
     0
  3
 
 72
    65
 73
     2
 40
16.
 49
16.
 49
0.
  0
LTYPE
  2
DRUCKLUFT-HAUPTNETZ
 70
     0
  3
 
 72
    65
 73
     2
 40
16.
 49
16.
 49
0.
  0
LTYPE
  2
DRUCKLUFT-HOCHDRUCKNETZ
 70
     0
  3
 
 72
    65
 73
     2
 40
16.
 49
16.
 49
0.
  0
LTYPE
  2
DRUCKLUFT-NIEDERDRUCKNETZ
 70
     0
  3
 
 72
    65
 73
     2
 40
16.
 49
16.
 49
0.
  0
LTYPE
  2
MISCHWASSER-DRUCK
 70
     0
  3
 
 72
    65
 73
     2
 40
16.
 49
16.
 49
0.
  0
LTYPE
  2
MISCHWASSER-KANAL
 70
     0
  3
 
 72
    65
 73
     2
 40
16.
 49
16.
 49
0.
  0
LTYPE
  2
OELHALTIGES-ABWASSER-DRUCK
 70
     0
  3
 
 72
    65
 73
     2
 40
16.
 49
16.
 49
0.
  0
LTYPE
  2
OELHALTIGES-ABWASSER-KANAL
 70
     0
  3
 
 72
    65
 73
     2
 40
16.
 49
16.
 49
0.
  0
LTYPE
  2
REGENWASSER-DRUCK
 70
     0
  3
 
 72
    65
 73
     2
 40
16.
 49
16.
 49
0.
  0
LTYPE
  2
REGENWASSER-KANAL
 70
     0
  3
 
 72
    65
 73
     2
 40
16.
 49
16.
 49
0.
  0
LTYPE
  2
SCHMUTZWASSER-DRUCK
 70
     0
  3
 
 72
    65
 73
     2
 40
16.
 49
16.
 49
0.
  0
LTYPE
  2
SCHMUTZWASSER-KANAL
 70
     0
  3
 
 72
    65
 73
     2
 40
16.
 49
16.
 49
0.
  0
LTYPE
  2
ALTEMULSION
 70
     0
  3
 
 72
    65
 73
     2
 40
16.
 49
16.
 49
0.
  0
LTYPE
  2
ALTWASCHWASSER
 70
     0
  3
 
 72
    65
 73
     2
 40
16.
 49
16.
 49
0.
  0
LTYPE
  2
CHROMHALTIGES-SPUELWASSER
 70
     0
  3
 
 72
    65
 73
     2
 40
16.
 49
16.
 49
0.
  0
LTYPE
  2
CYANIDHALTIGES-SPUELWASSER
 70
     0
  3
 
 72
    65
 73
     2
 40
16.
 49
16.
 49
0.
  0
LTYPE
  2
GEKLAERTES-ABWASSER
 70
     0
  3
 
 72
    65
 73
     2
 40
16.
 49
16.
 49
0.
  0
LTYPE
  2
NITRITHALTIGES-SPUELWASSER
 70
     0
  3
 
 72
    65
 73
     2
 40
16.
 49
16.
 49
0.
  0
LTYPE
  2
SAURES-ALKALISCHES-ELUAT
 70
     0
  3
 
 72
    65
 73
     2
 40
16.
 49
16.
 49
0.
  0
LTYPE
  2
SAURES-ALKALISCHES-SPUELWASSER
 70
     0
  3
 
 72
    65
 73
     2
 40
16.
 49
16.
 49
0.
  0
LTYPE
  2
AMIDASULFONSAEURE
 70
     0
  3
 
 72
    65
 73
     2
 40
16.
 49
16.
 49
0.
  0
LTYPE
  2
CHROMHALTIGES-KONZENTRAT
 70
     0
  3
 
 72
    65
 73
     2
 40
16.
 49
16.
 49
0.
  0
LTYPE
  2
CYANIDHALTIGES-KONZENTRAT
 70
     0
  3
 
 72
    65
 73
     2
 40
16.
 49
16.
 49
0.
  0
LTYPE
  2
ELEKTROLYT
 70
     0
  3
 
 72
    65
 73
     2
 40
16.
 49
16.
 49
0.
  0
LTYPE
  2
NATRIUMBISULFIT
 70
     0
  3
 
 72
    65
 73
     2
 40
16.
 49
16.
 49
0.
  0
LTYPE
  2
NATRIUMHYPOCHLORIT
 70
     0
  3
 
 72
    65
 73
     2
 40
16.
 49
16.
 49
0.
  0
LTYPE
  2
NATRONLAUGE
 70
     0
  3
 
 72
    65
 73
     2
 40
16.
 49
16.
 49
0.
  0
LTYPE
  2
NITRITHALTIGES-KONZENTRAT
 70
     0
  3
 
 72
    65
 73
     2
 40
16.
 49
16.
 49
0.
  0
LTYPE
  2
PHOSPHORSAEURE
 70
     0
  3
 
 72
    65
 73
     2
 40
16.
 49
16.
 49
0.
  0
LTYPE
  2
SALPETERSAEURE
 70
     0
  3
 
 72
    65
 73
     2
 40
16.
 49
16.
 49
0.
  0
LTYPE
  2
SALZSAEURE
 70
     0
  3
 
 72
    65
 73
     2
 40
16.
 49
16.
 49
0.
  0
LTYPE
  2
SCHWEFELSAEURE
 70
     0
  3
 
 72
    65
 73
     2
 40
16.
 49
16.
 49
0.
  0
LTYPE
  2
BETRIEBSWAERME-RL
 70
     0
  3
 
 72
    65
 73
     2
 40
5.
 49
4.063
 49
-0.938
  0
LTYPE
  2
BETRIEBSWAERME-VL
 70
     0
  3
 
 72
    65
 73
     2
 40
16.
 49
16.
 49
0.
  0
LTYPE
  2
WARMWASSER-VL
 70
     0
  3
 
 72
    65
 73
     2
 40
16.
 49
16.
 49
0.
  0
LTYPE
  2
WARMWASSER-ZIRKULATION
 70
     0
  3
 
 72
    65
 73
     4
 40
13.
 49
9.34
 49
-1.22
 49
1.22
 49
-1.22
  0
LTYPE
  2
ROHWASSER
 70
     0
  3
 
 72
    65
 73
     2
 40
16.
 49
16.
 49
0.
  0
LTYPE
  2
ARGON
 70
     0
  3
 
 72
    65
 73
     2
 40
16.
 49
16.
 49
0.
  0
LTYPE
  2
CORGON
 70
     0
  3
 
 72
    65
 73
     2
 40
16.
 49
16.
 49
0.
  0
LTYPE
  2
KOHLENDIOXID
 70
     0
  3
 
 72
    65
 73
     2
 40
16.
 49
16.
 49
0.
  0
LTYPE
  2
STICKSTOFF
 70
     0
  3
 
 72
    65
 73
     2
 40
16.
 49
16.
 49
0.
  0
LTYPE
  2
AZETYLEN
 70
     0
  3
 
 72
    65
 73
     2
 40
16.
 49
16.
 49
0.
  0
LTYPE
  2
ERDGAS
 70
     0
  3
 
 72
    65
 73
     2
 40
16.
 49
16.
 49
0.
  0
LTYPE
  2
SAUERSTOFF--TECHNISCH-REIN
 70
     0
  3
 
 72
    65
 73
     2
 40
16.
 49
16.
 49
0.
  0
LTYPE
  2
TRAEGERGAS
 70
     0
  3
 
 72
    65
 73
     2
 40
16.
 49
16.
 49
0.
  0
LTYPE
  2
WASSERSTOFF
 70
     0
  3
 
 72
    65
 73
     2
 40
16.
 49
16.
 49
0.
  0
LTYPE
  2
KRAFTSTOFF-GK-A-I-D
 70
     0
  3
 
 72
    65
 73
     2
 40
16.
 49
16.
 49
0.
  0
LTYPE
  2
KRAFTSTOFF-SONDER-D
 70
     0
  3
 
 72
    65
 73
     2
 40
16.
 49
16.
 49
0.
  0
LTYPE
  2
ACHSOEL
 70
     0
  3
 
 72
    65
 73
     2
 40
16.
 49
16.
 49
0.
  0
LTYPE
  2
ALTOEL
 70
     0
  3
 
 72
    65
 73
     2
 40
16.
 49
16.
 49
0.
  0
LTYPE
  2
BOHROEL
 70
     0
  3
 
 72
    65
 73
     2
 40
16.
 49
16.
 49
0.
  0
LTYPE
  2
ERODIEROEL
 70
     0
  3
 
 72
    65
 73
     2
 40
16.
 49
16.
 49
0.
  0
LTYPE
  2
FETT
 70
     0
  3
 
 72
    65
 73
     2
 40
16.
 49
16.
 49
0.
  0
LTYPE
  2
GETRIEBEOEL
 70
     0
  3
 
 72
    65
 73
     2
 40
16.
 49
16.
 49
0.
  0
LTYPE
  2
HAERTEOEL
 70
     0
  3
 
 72
    65
 73
     2
 40
16.
 49
16.
 49
0.
  0
LTYPE
  2
HONOEL
 70
     0
  3
 
 72
    65
 73
     2
 40
16.
 49
16.
 49
0.
  0
LTYPE
  2
HYDRAULIKOEL
 70
     0
  3
 
 72
    65
 73
     2
 40
16.
 49
16.
 49
0.
  0
LTYPE
  2
MOTOROEL
 70
     0
  3
 
 72
    65
 73
     2
 40
16.
 49
16.
 49
0.
  0
LTYPE
  2
NORMALSPUELOEL
 70
     0
  3
 
 72
    65
 73
     2
 40
16.
 49
16.
 49
0.
  0
LTYPE
  2
RAEUMOEL
 70
     0
  3
 
 72
    65
 73
     2
 40
16.
 49
16.
 49
0.
  0
LTYPE
  2
SCHLEIFOEL
 70
     0
  3
 
 72
    65
 73
     2
 40
16.
 49
16.
 49
0.
  0
LTYPE
  2
SCHNEIDOEL
 70
     0
  3
 
 72
    65
 73
     2
 40
16.
 49
16.
 49
0.
  0
LTYPE
  2
SONDERSPUELOEL
 70
     0
  3
 
 72
    65
 73
     2
 40
16.
 49
16.
 49
0.
  0
LTYPE
  2
ZIEHOEL
 70
     0
  3
 
 72
    65
 73
     2
 40
16.
 49
16.
 49
0.
  0
LTYPE
  2
MONTAGEOEL
 70
     0
  3
 
 72
    65
 73
     2
 40
16.
 49
16.
 49
0.
  0
LTYPE
  2
MONTAGE-GLEITOEL
 70
     0
  3
 
 72
    65
 73
     2
 40
16.
 49
16.
 49
0.
  0
LTYPE
  2
SPUELOEL
 70
     0
  3
 
 72
    65
 73
     2
 40
16.
 49
16.
 49
0.
  0
LTYPE
  2
TIEFBOHROEL
 70
     0
  3
 
 72
    65
 73
     2
 40
16.
 49
16.
 49
0.
  0
LTYPE
  2
AMIN
 70
     0
  3
 
 72
    65
 73
     2
 40
16.
 49
16.
 49
0.
  0
LTYPE
  2
HAERTER
 70
     0
  3
 
 72
    65
 73
     2
 40
16.
 49
16.
 49
0.
  0
LTYPE
  2
HARZ
 70
     0
  3
 
 72
    65
 73
     2
 40
16.
 49
16.
 49
0.
  0
LTYPE
  2
LOESEMITTEL
 70
     0
  3
 
 72
    65
 73
     2
 40
16.
 49
16.
 49
0.
  0
LTYPE
  2
LACK
 70
     0
  3
 
 72
    65
 73
     2
 40
16.
 49
16.
 49
0.
  0
LTYPE
  2
WASCHWASSER
 70
     0
  3
 
 72
    65
 73
     2
 40
16.
 49
16.
 49
0.
  0
LTYPE
  2
GLEITSCHLEIFWASSER
 70
     0
  3
 
 72
    65
 73
     2
 40
16.
 49
16.
 49
0.
  0
LTYPE
  2
VERDUENNUNG
 70
     0
  3
 
 72
    65
 73
     2
 40
16.
 49
16.
 49
0.
  0
LTYPE
  2
KUEHLDECKEN-VORLAUF
 70
     0
  3
 
 72
    65
 73
     2
 40
16.
 49
16.
 49
0.
  0
LTYPE
  2
KUEHLDECKEN-RUECKLAUF
 70
     0
  3
 
 72
    65
 73
     2
 40
5.
 49
4.063
 49
-0.938
  0
LTYPE
  2
KONDENSAT
 70
     0
  3
 
 72
    65
 73
     2
 40
16.
 49
16.
 49
0.
  0
LTYPE
  2
KONDENSAT-REINDAMPF
 70
     0
  3
 
 72
    65
 73
     2
 40
16.
 49
16.
 49
0.
  0
LTYPE
  2
KONDENSAT-HOCHDRUCK
 70
     0
  3
 
 72
    65
 73
     2
 40
16.
 49
16.
 49
0.
  0
LTYPE
  2
DAMPF
 70
     0
  3
 
 72
    65
 73
     2
 40
16.
 49
16.
 49
0.
  0
LTYPE
  2
REINDAMPF
 70
     0
  3
 
 72
    65
 73
     2
 40
16.
 49
16.
 49
0.
  0
LTYPE
  2
DAMPF-HOCHDRUCK
 70
     0
  3
 
 72
    65
 73
     2
 40
16.
 49
16.
 49
0.
  0
LTYPE
  2
KLIMA-ZENTRALE
 70
     0
  3
 
 72
    65
 73
     2
 40
16.
 49
16.
 49
0.
  0
LTYPE
  2
KLIMA-AUSSENLUFT
 70
     0
  3
 
 72
    65
 73
     4
 40
13.
 49
9.34
 49
-1.22
 49
1.22
 49
-1.22
  0
LTYPE
  2
KLIMA-ZULUFT-I
 70
     0
  3
 
 72
    65
 73
     2
 40
16.
 49
16.
 49
0.
  0
LTYPE
  2
KLIMA-ZULUFT-II
 70
     0
  3
 
 72
    65
 73
     2
 40
16.
 49
16.
 49
0.
  0
LTYPE
  2
KLIMA-ZULUFT-III
 70
     0
  3
 
 72
    65
 73
     2
 40
16.
 49
16.
 49
0.
  0
LTYPE
  2
KLIMA-ZULUFT-IV
 70
     0
  3
 
 72
    65
 73
     2
 40
16.
 49
16.
 49
0.
  0
LTYPE
  2
KLIMA-UMLUFT
 70
     0
  3
 
 72
    65
 73
     2
 40
5.
 49
4.063
 49
-0.938
  0
LTYPE
  2
KLIMA-MISCHLUFT
 70
     0
  3
 
 72
    65
 73
     6
 40
11.
 49
3.78
 49
-1.03
 49
3.78
 49
-1.03
 49
0.34
 49
-1.03
  0
LTYPE
  2
KLIMA-ABLUFT
 70
     0
  3
 
 72
    65
 73
     2
 40
5.
 49
4.063
 49
-0.938
  0
LTYPE
  2
KLIMA-FORTLUFT
 70
     0
  3
 
 72
    65
 73
     2
 40
5.
 49
4.063
 49
-0.938
  0
LTYPE
  2
ENTRAUCHUNG
 70
     0
  3
 
 72
    65
 73
     2
 40
5.
 49
4.063
 49
-0.938
  0
LTYPE
  2
ELEKTRO-ZENTRALE
 70
     0
  3
 
 72
    65
 73
     2
 40
16.
 49
16.
 49
0.
  0
LTYPE
  2
STROMSCHIENEN
 70
     0
  3
 
 72
    65
 73
     2
 40
16.
 49
16.
 49
0.
  0
LTYPE
  2
ELEKTRO-LEITUNGSFUEHRUNG
 70
     0
  3
 
 72
    65
 73
     2
 40
16.
 49
16.
 49
0.
  0
LTYPE
  2
ELEKTRO-KABELTRAEGER
 70
     0
  3
 
 72
    65
 73
     2
 40
16.
 49
16.
 49
0.
  0
LTYPE
  2
INNENWAND
 70
     0
  3
 
 72
    65
 73
     2
 40
16.
 49
16.
 49
0.
  0
LTYPE
  2
AUSSENWAND
 70
     0
  3
 
 72
    65
 73
     2
 40
16.
 49
16.
 49
0.
  0
LTYPE
  2
ERDBERUEHREND
 70
     0
  3
 
 72
    65
 73
     2
 40
16.
 49
16.
 49
0.
  0
LTYPE
  2
REINWASSER
 70
     0
  3
 
 72
    65
 73
     2
 40
16.
 49
16.
 49
0.
  0
ENDTAB
  0
TABLE
  2
LAYER
 70
     1
  0
LAYER
  2
0
 62
     7
  6
AUSGEZOGEN
 70
    64
  0
ENDTAB
  0
TABLE
  2
STYLE
 70
    23
  0
STYLE
  2
STANDARD
 70
     0
 40
     0
 41
       1.000000
 50
       0.000000
 71
     0
 42
       3.500000
  3
isocp
  4

  0
STYLE
  2
DIN-6776
 70
     0
 40
     0
 41
       1.000000
 50
       0.000000
 71
     0
 42
       3.500000
  3
isocp
  4

  0
STYLE
  2
ROMAN
 70
     0
 40
     0
 41
       1.000000
 50
       0.000000
 71
     0
 42
       3.500000
  3
romans.shx
  4

  0
STYLE
  2
SCRIPT
 70
     0
 40
     0
 41
       1.000000
 50
       0.000000
 71
     0
 42
       3.500000
  3
scripts.shx
  4

  0
STYLE
  2
GRIECHISCH
 70
     0
 40
     0
 41
       1.000000
 50
       0.000000
 71
     0
 42
       3.500000
  3
greeks.shx
  4

  0
STYLE
  2
KYRILLISCH
 70
     0
 40
     0
 41
       1.000000
 50
       0.000000
 71
     0
 42
       3.500000
  3
cyrillic.shx
  4

  0
STYLE
  2
MATH--FORMELZEICHEN
 70
     0
 40
     0
 41
       1.000000
 50
       0.000000
 71
     0
 42
       3.500000
  3
symath.shx
  4

  0
STYLE
  2
DOPPELLINIE
 70
     0
 40
     0
 41
       1.000000
 50
       0.000000
 71
     0
 42
       3.500000
  3
swissko.ttf
  4

  0
STYLE
  2
SERIFENSCHRIFT
 70
     0
 40
     0
 41
       1.000000
 50
       0.000000
 71
     0
 42
       3.500000
  3
romanc__.ttf
  4

  0
STYLE
  2
ARIAL
 70
     0
 40
     0
 41
       1.000000
 50
       0.000000
 71
     0
 42
       3.500000
  3
arial.ttf
  4

  0
STYLE
  2
ARIAL-FETT
 70
     0
 40
     0
 41
       1.000000
 50
       0.000000
 71
     0
 42
       3.500000
  3
arialbd.ttf
  4

  0
STYLE
  2
TIMES-NEW-ROMAN
 70
     0
 40
     0
 41
       1.000000
 50
       0.000000
 71
     0
 42
       3.500000
  3
times.ttf
  4

  0
STYLE
  2
TIMES-NEW-ROMAN-FETT
 70
     0
 40
     0
 41
       1.000000
 50
       0.000000
 71
     0
 42
       3.500000
  3
timesbd.ttf
  4

  0
STYLE
  2
DIN-6776-OSTEUROPA
 70
     0
 40
     0
 41
       1.000000
 50
       0.000000
 71
     0
 42
       3.500000
  3
txt
  4

  0
STYLE
  2
DIN-6776-KYRILLISCH
 70
     0
 40
     0
 41
       1.000000
 50
       0.000000
 71
     0
 42
       3.500000
  3
txt
  4

  0
STYLE
  2
ARIAL-OSTEUROPA
 70
     0
 40
     0
 41
       1.000000
 50
       0.000000
 71
     0
 42
       3.500000
  3
arial.ttf
  4

  0
STYLE
  2
ARIAL-KYRILLISCH
 70
     0
 40
     0
 41
       1.000000
 50
       0.000000
 71
     0
 42
       3.500000
  3
arial.ttf
  4

  0
STYLE
  2
ARIAL-FETT-OSTEUROPA
 70
     0
 40
     0
 41
       1.000000
 50
       0.000000
 71
     0
 42
       3.500000
  3
arialbd.ttf
  4

  0
STYLE
  2
ARIAL-FETT-KYRILLISCH
 70
     0
 40
     0
 41
       1.000000
 50
       0.000000
 71
     0
 42
       3.500000
  3
arialbd.ttf
  4

  0
STYLE
  2
TIMES-N-R-OSTEUROPA
 70
     0
 40
     0
 41
       1.000000
 50
       0.000000
 71
     0
 42
       3.500000
  3
times.ttf
  4

  0
STYLE
  2
TIMES-N-R-KYRILLISCH
 70
     0
 40
     0
 41
       1.000000
 50
       0.000000
 71
     0
 42
       3.500000
  3
times.ttf
  4

  0
STYLE
  2
TIMES-N-R-FETT-OSTEUROPA
 70
     0
 40
     0
 41
       1.000000
 50
       0.000000
 71
     0
 42
       3.500000
  3
timesbd.ttf
  4

  0
STYLE
  2
TIMES-N-R-FETT-KYRILLISCH
 70
     0
 40
     0
 41
       1.000000
 50
       0.000000
 71
     0
 42
       3.500000
  3
timesbd.ttf
  4

  0
ENDTAB
  0
TABLE
  2
VIEW
 70
     0
  0
ENDTAB
  0
TABLE
  2
VPORT
 70
     2
  0
VPORT
  2
*ACTIVE
 70
     0
 10
       0.000000
 20
       0.000000
 11
       1.000000
 21
       1.000000
 12
    1613.301270
 22
    1095.472168
 13
       0.000000
 23
       0.000000
 14
       1.000000
 24
       1.000000
 15
       0.000000
 25
       0.000000
 16
       0.000000
 26
       0.000000
 36
       1.000000
 17
       0.000000
 27
       0.000000
 37
       0.000000
 40
    2190.944336
 41
       1.472699
 42
      50.000000
 43
       0.000000
 44
       0.000000
 50
       0.000000
 51
       0.000000
 71
     0
 72
   100
 73
     1
 74
     1
 75
     0
 76
     0
 77
     0
 78
     0
  0
ENDTAB
  0
TABLE
  2
DIMSTYLE
 70
     1
  0
DIMSTYLE
  2
STDBEM
 70
     0
  3

  4

  5

  6

  7

 40
       1.000000
 41
       3.500000
 42
       0.100000
 43
       7.000000
 44
       1.800000
 45
       0.000000
 46
       0.000000
 47
       0.000000
 48
       0.000000
140
       3.500000
141
       1.500000
142
       0.000000
143
      25.400000
144
       1.000000
145
       0.000000
146
       1.000000
147
       0.090000
 71
     0
 72
     0
 73
     0
 74
     0
 75
     0
 76
     0
 77
     1
 78
     0
170
     0
171
     2
172
     0
173
     0
174
     0
175
     0
176
     0
177
     0
178
     0
  0
ENDTAB
  0
ENDSEC
  0
SECTION
  2
BLOCKS
  0
ENDSEC
  0
SECTION
  2
ENTITIES
  0
CIRCLE
  8
0
  6
VERDECKTE_KANTE
 62
     8
 10
    2581.633057
 20
    1869.973633
 40
      25.000000
  0
LINE
  8
0
  6
HILFSLINIE
 62
     8
 10
     397.933350
 20
    1886.669922
 11
    1506.080322
 21
    1886.671875
  0
LINE
  8
0
  6
HILFSLINIE
 62
     8
 10
    2306.633057
 20
    1880.907227
 11
    2559.150879
 21
    1880.907715
  0
LINE
  8
0
  6
HILFSLINIE
 62
     8
 10
    2604.115234
 20
    1880.907715
 11
    2856.633057
 21
    1880.908203
  0
LINE
  8
0
  6
HILFSLINIE
 62
     8
 10
    1306.635498
 20
     782.971436
 11
     593.424561
 21
     782.970459
  0
LINE
  8
0
  6
HILFSLINIE
 62
     8
 10
    1306.635986
 20
     482.971436
 11
     593.425049
 21
     482.970459
  0
LINE
  8
0
  6
HILFSLINIE
 62
     8
 10
    3194.968994
 20
     632.974854
 11
    1968.301514
 21
     632.972412
  0
ARC
  8
0
  6
HILFSLINIE
 62
     8
 10
    1149.032471
 20
     632.971436
 40
     640.000000
 50
     172.819321
 51
     187.180832
  0
ARC
  8
0
  6
HILFSLINIE
 62
     8
 10
    1306.635498
 20
     632.971436
 40
     150.000000
 50
     270.000183
 51
      90.000000
  0
ARC
  8
0
  6
HILFSLINIE
 62
     8
 10
     593.424561
 20
     702.970459
 40
      80.000000
 50
      90.000000
 51
     172.819244
  0
ARC
  8
0
  6
HILFSLINIE
 62
     8
 10
     593.424561
 20
     562.970459
 40
      80.000000
 50
     187.180756
 51
     270.000336
  0
LINE
  8
0
  6
MITTELLINIE
 62
     8
 10
     881.633057
 20
    1932.970947
 11
     881.634033
 21
    1543.848389
  0
LINE
  8
0
  6
MITTELLINIE
 62
     8
 10
    2581.633057
 20
    1932.973633
 11
    2581.633789
 21
    1515.973633
  0
LINE
  8
0
  6
MITTELLINIE
 62
     8
 10
    1731.635254
 20
     632.972412
 11
      31.635498
 21
     632.969482
  0
LINE
  8
0
  6
MITTELLINIE
 62
     8
 10
     881.635010
 20
    1007.970703
 11
     881.635986
 21
     257.970947
  0
LINE
  8
0
 10
      31.633057
 20
    1926.969482
 11
      31.633057
 21
    1906.969482
  0
LINE
  8
0
 10
      37.633057
 20
    1932.969482
 11
    1725.633057
 21
    1932.972168
  0
LINE
  8
0
 10
    1731.633057
 20
    1926.972168
 11
    1731.633057
 21
    1906.972168
  0
LINE
  8
0
 10
      37.633057
 20
    1900.969482
 11
    1725.633057
 21
    1900.972168
  0
LINE
  8
0
 10
     486.507080
 20
    1554.194336
 11
    1375.952881
 21
    1530.905029
  0
LINE
  8
0
 10
    1395.013428
 20
    1515.971680
 11
    1448.254639
 21
    1515.971680
  0
LINE
  8
0
 10
    2950.633057
 20
    1932.974365
 11
    2212.633057
 21
    1932.973145
  0
LINE
  8
0
 10
    2956.633057
 20
    1906.974365
 11
    2956.633057
 21
    1926.974365
  0
LINE
  8
0
 10
    2212.633057
 20
    1900.973145
 11
    2950.633057
 21
    1900.974365
  0
LINE
  8
0
 10
    2206.633057
 20
    1906.973145
 11
    2206.633057
 21
    1926.973145
  0
LINE
  8
0
 10
    2555.633789
 20
    1515.973633
 11
    2607.633789
 21
    1515.973633
  0
LINE
  8
0
 10
    1708.635986
 20
     257.972412
 11
      54.635986
 21
     257.969482
  0
LINE
  8
0
 10
      31.635010
 20
     984.969482
 11
      31.635986
 21
     280.969482
  0
LINE
  8
0
 10
    1731.635986
 20
     280.972412
 11
    1731.634766
 21
     984.972168
  0
LINE
  8
0
 10
    1708.634766
 20
    1007.972168
 11
      54.635010
 21
    1007.969482
  0
LINE
  8
0
 10
    2537.830322
 20
    1530.452637
 11
    2625.436768
 21
    1530.452881
  0
LINE
  8
0
 10
    1375.952881
 20
    1530.905029
 11
    1466.815186
 21
    1532.217773
  0
ARC
  8
0
 10
      37.633057
 20
    1906.969482
 40
       6.000000
 50
     180.000000
 51
     270.000000
  0
ARC
  8
0
 10
      37.633057
 20
    1926.969482
 40
       6.000000
 50
      90.000000
 51
     180.000000
  0
ARC
  8
0
 10
    1725.633057
 20
    1926.972168
 40
       6.000000
 50
       0.000000
 51
      90.000000
  0
ARC
  8
0
 10
    1725.633057
 20
    1906.972168
 40
       6.000000
 50
     270.000000
 51
       0.000000
  0
ARC
  8
0
 10
      56.478271
 20
    1841.802002
 40
      87.000038
 50
      29.259447
 51
      42.850727
  0
ARC
  8
0
 10
     493.129150
 20
    1807.107910
 40
     253.000092
 50
     220.501297
 51
     268.500153
  0
ARC
  8
0
 10
     445.266357
 20
    1984.135742
 40
    1203.000000
 50
     343.416809
 51
     356.035950
  0
ARC
  8
0
 10
    1443.617920
 20
    2618.939453
 40
    1503.000000
 50
     209.259491
 51
     220.501282
  0
ARC
  8
0
 10
    1375.664795
 20
    1519.908691
 40
      11.000000
 50
      14.664207
 51
      88.499283
  0
ARC
  8
0
 10
    1395.013428
 20
    1524.971680
 40
       9.000000
 50
     194.663498
 51
     270.000000
  0
ARC
  8
0
 10
    1448.254639
 20
    1524.971680
 40
       9.000000
 50
     270.000000
 51
     349.341766
  0
ARC
  8
0
 10
    1467.909424
 20
    1521.272461
 40
      11.000000
 50
      95.708946
 51
     169.340500
  0
ARC
  8
0
 10
    1451.593506
 20
    1684.458496
 40
     152.999985
 50
     275.709686
 51
     343.416809
  0
ARC
  8
0
 10
    2212.633057
 20
    1926.973145
 40
       6.000000
 50
      90.000000
 51
     180.000000
  0
ARC
  8
0
 10
    2212.633057
 20
    1906.973145
 40
       6.000000
 50
     180.000000
 51
     270.000000
  0
ARC
  8
0
 10
    2950.633057
 20
    1926.974365
 40
       6.000000
 50
       0.000000
 51
      90.000000
  0
ARC
  8
0
 10
    2950.633057
 20
    1906.974365
 40
       6.000000
 50
     270.000000
 51
       0.000000
  0
ARC
  8
0
 10
    2436.487549
 20
    1628.475342
 40
      92.999878
 50
     199.053482
 51
     266.908295
  0
ARC
  8
0
 10
    2581.630371
 20
    3532.973877
 40
    2003.000000
 50
     265.699554
 51
     268.746979
  0
ARC
  8
0
 10
    2726.779541
 20
    1628.475830
 40
      92.999992
 50
     273.091522
 51
     341.137390
  0
ARC
  8
0
 10
    1676.390869
 20
    1987.340576
 40
    1203.000122
 50
     341.137299
 51
     355.883026
  0
ARC
  8
0
 10
    3486.874512
 20
    1987.343750
 40
    1203.000122
 50
     184.117142
 51
     198.862900
  0
ARC
  8
0
 10
    2581.630371
 20
    3532.973877
 40
    2003.000000
 50
     271.253174
 51
     274.300415
  0
ARC
  8
0
 10
    2537.633789
 20
    1521.457764
 40
       9.000000
 50
      11.262991
 51
      88.748726
  0
ARC
  8
0
 10
    2555.287109
 20
    1524.973633
 40
       9.000000
 50
     191.264511
 51
     272.205994
  0
ARC
  8
0
 10
    2625.633789
 20
    1521.458008
 40
       9.000000
 50
      91.254379
 51
     168.737000
  0
ARC
  8
0
 10
    2607.980469
 20
    1524.973633
 40
       9.000000
 50
     267.793976
 51
     348.737000
  0
ARC
  8
0
 10
      54.635986
 20
     280.969482
 40
      23.000000
 50
     180.000000
 51
     270.000000
  0
ARC
  8
0
 10
    2106.479004
 20
     632.972900
 40
    2000.000000
 50
     179.283875
 51
     180.716309
  0
ARC
  8
0
 10
    1086.635498
 20
     657.990967
 40
     980.000000
 50
     169.288879
 51
     180.001251
  0
ARC
  8
0
 10
     251.445557
 20
     815.969971
 40
     130.000000
 50
      90.422874
 51
     169.289001
  0
ARC
  8
0
 10
      54.635010
 20
     984.969482
 40
      23.000000
 50
      90.000000
 51
     180.000000
  0
ARC
  8
0
 10
    1708.634766
 20
     984.972168
 40
      23.000000
 50
       0.000000
 51
      90.000000
  0
ARC
  8
0
 10
    1708.635986
 20
     280.972412
 40
      23.000000
 50
     270.000000
 51
       0.000000
  0
ARC
  8
0
 10
    1086.635498
 20
     607.950928
 40
     980.000000
 50
     179.998901
 51
     190.711273
  0
ARC
  8
0
 10
     251.446045
 20
     449.969971
 40
     130.000000
 50
     190.711395
 51
     269.577332
  0
ARC
  8
0
 10
     434.901611
 20
   25319.294922
 40
   25000.000000
 50
     269.577332
 51
     272.216797
  0
ARC
  8
0
 10
     435.019287
 20
  -24053.351562
 40
   25000.000000
 50
      87.795662
 51
      90.422920
  0
CIRCLE
  8
0
 10
    1421.635498
 20
     632.971924
 40
      26.000000
  0
POLYLINE
  8
0
 66
     1
 10
       0.000000
 20
       0.000000
 30
       0.000000
  0
VERTEX
  8
0
 10
    1401.929443
 20
     338.003174
 30
       0.000000
  0
VERTEX
  8
0
 10
    1405.969482
 20
     338.003174
 30
       0.000000
  0
VERTEX
  8
0
 10
    1424.614502
 20
     339.656006
 30
       0.000000
  0
VERTEX
  8
0
 10
    1443.015869
 20
     342.931396
 30
       0.000000
  0
VERTEX
  8
0
 10
    1461.021240
 20
     347.771729
 30
       0.000000
  0
VERTEX
  8
0
 10
    1478.491943
 20
     354.093994
 30
       0.000000
  0
VERTEX
  8
0
 10
    1495.305908
 20
     361.795654
 30
       0.000000
  0
VERTEX
  8
0
 10
    1511.361572
 20
     370.760986
 30
       0.000000
  0
VERTEX
  8
0
 10
    1526.577393
 20
     380.862549
 30
       0.000000
  0
VERTEX
  8
0
 10
    1540.892822
 20
     391.971924
 30
       0.000000
  0
VERTEX
  8
0
 10
    1554.268311
 20
     403.961182
 30
       0.000000
  0
VERTEX
  8
0
 10
    1566.678955
 20
     416.706299
 30
       0.000000
  0
VERTEX
  8
0
 10
    1578.116455
 20
     430.092529
 30
       0.000000
  0
VERTEX
  8
0
 10
    1588.585205
 20
     444.014893
 30
       0.000000
  0
VERTEX
  8
0
 10
    1598.096924
 20
     458.378662
 30
       0.000000
  0
VERTEX
  8
0
 10
    1606.672119
 20
     473.101807
 30
       0.000000
  0
VERTEX
  8
0
 10
    1614.336182
 20
     488.113037
 30
       0.000000
  0
VERTEX
  8
0
 10
    1621.114502
 20
     503.351807
 30
       0.000000
  0
VERTEX
  8
0
 10
    1627.036377
 20
     518.767334
 30
       0.000000
  0
VERTEX
  8
0
 10
    1632.127686
 20
     534.319092
 30
       0.000000
  0
VERTEX
  8
0
 10
    1636.415283
 20
     549.972900
 30
       0.000000
  0
VERTEX
  8
0
 10
    1639.921631
 20
     565.702393
 30
       0.000000
  0
VERTEX
  8
0
 10
    1642.666748
 20
     581.485596
 30
       0.000000
  0
VERTEX
  8
0
 10
    1644.666748
 20
     597.305908
 30
       0.000000
  0
VERTEX
  8
0
 10
    1645.933350
 20
     613.150146
 30
       0.000000
  0
VERTEX
  8
0
 10
    1646.474854
 20
     629.007080
 30
       0.000000
  0
VERTEX
  8
0
 10
    1646.294189
 20
     644.865967
 30
       0.000000
  0
VERTEX
  8
0
 10
    1645.390869
 20
     660.718018
 30
       0.000000
  0
VERTEX
  8
0
 10
    1643.759033
 20
     676.552002
 30
       0.000000
  0
VERTEX
  8
0
 10
    1641.387939
 20
     692.355713
 30
       0.000000
  0
VERTEX
  8
0
 10
    1638.264893
 20
     708.114502
 30
       0.000000
  0
VERTEX
  8
0
 10
    1634.370361
 20
     723.808838
 30
       0.000000
  0
VERTEX
  8
0
 10
    1629.683838
 20
     739.415283
 30
       0.000000
  0
VERTEX
  8
0
 10
    1624.180420
 20
     754.903564
 30
       0.000000
  0
VERTEX
  8
0
 10
    1617.833252
 20
     770.236572
 30
       0.000000
  0
VERTEX
  8
0
 10
    1610.615967
 20
     785.368408
 30
       0.000000
  0
VERTEX
  8
0
 10
    1602.499756
 20
     800.243896
 30
       0.000000
  0
VERTEX
  8
0
 10
    1593.458740
 20
     814.797119
 30
       0.000000
  0
VERTEX
  8
0
 10
    1583.470947
 20
     828.950928
 30
       0.000000
  0
VERTEX
  8
0
 10
    1572.518799
 20
     842.617432
 30
       0.000000
  0
VERTEX
  8
0
 10
    1560.593994
 20
     855.697510
 30
       0.000000
  0
VERTEX
  8
0
 10
    1547.699463
 20
     868.079346
 30
       0.000000
  0
VERTEX
  8
0
 10
    1533.849854
 20
     879.644287
 30
       0.000000
  0
VERTEX
  8
0
 10
    1519.077393
 20
     890.266357
 30
       0.000000
  0
VERTEX
  8
0
 10
    1503.432861
 20
     899.815674
 30
       0.000000
  0
VERTEX
  8
0
 10
    1486.986572
 20
     908.164307
 30
       0.000000
  0
VERTEX
  8
0
 10
    1469.830322
 20
     915.190674
 30
       0.000000
  0
VERTEX
  8
0
 10
    1452.076416
 20
     920.783447
 30
       0.000000
  0
SEQEND
  8
0
  0
POLYLINE
  8
0
 66
     1
 10
       0.000000
 20
       0.000000
 30
       0.000000
  0
VERTEX
  8
0
 10
    1452.076416
 20
     920.783447
 30
       0.000000
  0
VERTEX
  8
0
 10
    1433.854248
 20
     924.849854
 30
       0.000000
  0
VERTEX
  8
0
 10
    1415.311279
 20
     927.319580
 30
       0.000000
  0
VERTEX
  8
0
 10
    1396.604736
 20
     928.147705
 30
       0.000000
  0
SEQEND
  8
0
  0
POLYLINE
  8
0
 66
     1
 10
       0.000000
 20
       0.000000
 30
       0.000000
  0
VERTEX
  8
0
 10
    1615.179932
 20
     613.110840
 30
       0.000000
  0
VERTEX
  8
0
 10
    1616.080811
 20
     611.347900
 30
       0.000000
  0
VERTEX
  8
0
 10
    1617.189697
 20
     609.679688
 30
       0.000000
  0
VERTEX
  8
0
 10
    1618.512451
 20
     608.270508
 30
       0.000000
  0
VERTEX
  8
0
 10
    1620.018799
 20
     607.313232
 30
       0.000000
  0
VERTEX
  8
0
 10
    1621.633057
 20
     606.972168
 30
       0.000000
  0
SEQEND
  8
0
  0
POLYLINE
  8
0
 66
     1
 10
       0.000000
 20
       0.000000
 30
       0.000000
  0
VERTEX
  8
0
 10
    1621.633057
 20
     606.972168
 30
       0.000000
  0
VERTEX
  8
0
 10
    1623.247314
 20
     607.313232
 30
       0.000000
  0
VERTEX
  8
0
 10
    1624.753662
 20
     608.270508
 30
       0.000000
  0
VERTEX
  8
0
 10
    1626.076416
 20
     609.679688
 30
       0.000000
  0
VERTEX
  8
0
 10
    1627.185303
 20
     611.347900
 30
       0.000000
  0
VERTEX
  8
0
 10
    1628.086182
 20
     613.110840
 30
       0.000000
  0
VERTEX
  8
0
 10
    1628.805908
 20
     614.855713
 30
       0.000000
  0
VERTEX
  8
0
 10
    1629.375732
 20
     616.518066
 30
       0.000000
  0
VERTEX
  8
0
 10
    1629.826904
 20
     618.067627
 30
       0.000000
  0
VERTEX
  8
0
 10
    1630.184814
 20
     619.496338
 30
       0.000000
  0
VERTEX
  8
0
 10
    1630.470947
 20
     620.807617
 30
       0.000000
  0
VERTEX
  8
0
 10
    1630.700928
 20
     622.010986
 30
       0.000000
  0
VERTEX
  8
0
 10
    1631.263916
 20
     625.974854
 30
       0.000000
  0
VERTEX
  8
0
 10
    1631.584717
 20
     630.416992
 30
       0.000000
  0
VERTEX
  8
0
 10
    1631.519287
 20
     636.886230
 30
       0.000000
  0
VERTEX
  8
0
 10
    1630.700928
 20
     643.933350
 30
       0.000000
  0
VERTEX
  8
0
 10
    1630.470947
 20
     645.136719
 30
       0.000000
  0
VERTEX
  8
0
 10
    1630.184814
 20
     646.447998
 30
       0.000000
  0
VERTEX
  8
0
 10
    1629.826904
 20
     647.876709
 30
       0.000000
  0
VERTEX
  8
0
 10
    1629.375732
 20
     649.426270
 30
       0.000000
  0
VERTEX
  8
0
 10
    1628.805908
 20
     651.088623
 30
       0.000000
  0
VERTEX
  8
0
 10
    1628.086182
 20
     652.833496
 30
       0.000000
  0
VERTEX
  8
0
 10
    1627.185303
 20
     654.596436
 30
       0.000000
  0
VERTEX
  8
0
 10
    1626.076416
 20
     656.264648
 30
       0.000000
  0
VERTEX
  8
0
 10
    1624.753662
 20
     657.673828
 30
       0.000000
  0
VERTEX
  8
0
 10
    1623.247314
 20
     658.631104
 30
       0.000000
  0
VERTEX
  8
0
 10
    1621.633057
 20
     658.972168
 30
       0.000000
  0
VERTEX
  8
0
 10
    1620.018799
 20
     658.631104
 30
       0.000000
  0
VERTEX
  8
0
 10
    1618.512451
 20
     657.673828
 30
       0.000000
  0
VERTEX
  8
0
 10
    1617.189697
 20
     656.264648
 30
       0.000000
  0
VERTEX
  8
0
 10
    1616.080811
 20
     654.596436
 30
       0.000000
  0
VERTEX
  8
0
 10
    1615.179443
 20
     652.833496
 30
       0.000000
  0
VERTEX
  8
0
 10
    1614.460205
 20
     651.088623
 30
       0.000000
  0
VERTEX
  8
0
 10
    1613.890381
 20
     649.426270
 30
       0.000000
  0
VERTEX
  8
0
 10
    1613.439209
 20
     647.876709
 30
       0.000000
  0
VERTEX
  8
0
 10
    1613.081299
 20
     646.447998
 30
       0.000000
  0
VERTEX
  8
0
 10
    1612.795166
 20
     645.136719
 30
       0.000000
  0
VERTEX
  8
0
 10
    1612.565186
 20
     643.933350
 30
       0.000000
  0
VERTEX
  8
0
 10
    1612.379150
 20
     642.826660
 30
       0.000000
  0
VERTEX
  8
0
 10
    1611.918213
 20
     639.137451
 30
       0.000000
  0
VERTEX
  8
0
 10
    1611.659912
 20
     634.874756
 30
       0.000000
  0
VERTEX
  8
0
 10
    1611.792725
 20
     628.341797
 30
       0.000000
  0
VERTEX
  8
0
 10
    1612.795166
 20
     620.807617
 30
       0.000000
  0
VERTEX
  8
0
 10
    1613.081299
 20
     619.496338
 30
       0.000000
  0
VERTEX
  8
0
 10
    1613.439209
 20
     618.067627
 30
       0.000000
  0
VERTEX
  8
0
 10
    1613.890381
 20
     616.518066
 30
       0.000000
  0
VERTEX
  8
0
 10
    1614.460205
 20
     614.855713
 30
       0.000000
  0
VERTEX
  8
0
 10
    1615.179932
 20
     613.110840
 30
       0.000000
  0
SEQEND
  8
0
  0
TEXT
  8
0
 10
    3021.635986
 20
     499.643311
 40
      66.666672
 50
       0.000000
 51
       0.000000
 41
       0.910000
  1
410
  7
DIN-6776
 72
     5
 11
    3123.469238
 21
     499.643311
  0
TEXT
  8
0
 10
    2688.302490
 20
     499.642334
 40
      66.666672
 50
       0.000000
 51
       0.000000
 41
       0.910000
  1
750
  7
DIN-6776
 72
     5
 11
    2800.969238
 21
     499.642334
  0
TEXT
  8
0
 10
    2348.302979
 20
     499.641846
 40
      66.666672
 50
       0.000000
 51
       0.000000
 41
       0.910000
  1
1700
  7
DIN-6776
 72
     5
 11
    2493.469727
 21
     499.641846
  0
TEXT
  8
0
 10
    2014.968994
 20
     499.640869
 40
      66.666672
 50
       0.000000
 51
       0.000000
 41
       0.910000
  1
373-1
  7
DIN-6776
 72
     5
 11
    2199.135742
 21
     499.640869
  0
TEXT
  8
0
 10
    3014.968262
 20
     699.642334
 40
      66.666672
 50
       0.000000
 51
       0.000000
 41
       0.910000
  1
Tiefe
  7
DIN-6776
 72
     5
 11
    3181.801514
 21
     699.642334
  0
TEXT
  8
0
 10
    2681.635010
 20
     699.641846
 40
      66.666672
 50
       0.000000
 51
       0.000000
 41
       0.910000
  1
Breite
  7
DIN-6776
 72
     5
 11
    2880.405029
 21
     699.641846
  0
TEXT
  8
0
 10
    2348.301025
 20
     699.641357
 40
      66.666672
 50
       0.000000
 51
       0.000000
 41
       0.910000
  1
Laenge
  7
DIN-6776
 72
     5
 11
    2590.967773
 21
     699.641357
  0
TEXT
  8
0
 10
    2014.968506
 20
     699.639404
 40
      66.666672
 50
       0.000000
 51
       0.000000
 41
       0.910000
  1
Modell
  7
DIN-6776
 72
     5
 11
    2222.968506
 21
     699.639404
  0
TEXT
  8
0
 10
    2214.967041
 20
     879.638916
 40
     100.000008
 50
       0.000039
 51
       0.000000
 41
       0.746667
  1
SANIFORM PLUS
  7
DIN-6776
 72
     5
 11
    2918.967041
 21
     879.639404
  0
ENDSEC
  0
EOF
