  0
SECTION
  2
HEADER
  9
$ACADVER
  1
AC1009
  9
$ANGBASE
 50
       0.000000
  9
$ANGDIR
 70
0
  9
$ATTDIA
 70
0
  9
$ATTMODE
 70
0
  9
$ATTREQ
 70
0
  9
$AUNITS
 70
0
  9
$AUPREC
 70
1
  9
$BLIPMODE
 70
1
  9
$CECOLOR
 62
256
  9
$CELTYPE
  6
BYLAYER
  9
$CHAMFERA
 40
       0.000000
  9
$CHAMFERB
 40
       0.000000
  9
$CLAYER
  8
0
  9
$COORDS
 70
1
  9
$DIMALT
 70
0
  9
$DIMALTD
 70
2
  9
$DIMALTF
 40
      25.400000
  9
$DIMAPOST
  1

  9
$DIMASO
 70
0
  9
$DIMASZ
 40
       3.500000
  9
$DIMBLK
  1

  9
$DIMBLK1
  1

  9
$DIMBLK2
  1

  9
$DIMCEN
 40
       1.500000
  9
$DIMCLRD
 70
0
  9
$DIMCLRE
 70
0
  9
$DIMCLRT
 70
0
  9
$DIMDLE
 40
       0.000000
  9
$DIMDLI
 40
       7.000000
  9
$DIMEXE
 40
       1.800000
  9
$DIMEXO
 40
       0.100000
  9
$DIMGAP
 40
       0.090000
  9
$DIMLFAC
 40
       1.000000
  9
$DIMLIM
 70
0
  9
$DIMPOST
  1

  9
$DIMRND
 40
       0.000000
  9
$DIMSAH
 70
0
  9
$DIMSCALE
 40
       1.000000
  9
$DIMSE1
 70
0
  9
$DIMSE2
 70
0
  9
$DIMSHO
 70
1
  9
$DIMSOXD
 70
0
  9
$DIMSTYLE
  2
*UNNAMED
  9
$DIMTAD
 70
1
  9
$DIMTFAC
 40
       1.000000
  9
$DIMTIH
 70
0
  9
$DIMTIX
 70
0
  9
$DIMTM
 40
       0.000000
  9
$DIMTOFL
 70
0
  9
$DIMTOH
 70
0
  9
$DIMTOL
 70
0
  9
$DIMTP
 40
       0.000000
  9
$DIMTSZ
 40
       0.000000
  9
$DIMTVP
 40
       0.000000
  9
$DIMTXT
 40
       3.500000
  9
$DIMZIN
 70
0
  9
$DRAGMODE
 70
2
  9
$DWGCODEPAGE
  3
iso8859-1
  9
$ELEVATION
 40
       0.000000
  9
$EXTMAX
 10
2685.90625
 20
1429.6746826172
 30
0.
  9
$EXTMIN
 10
-15.5634765625
 20
-15.563354492188
 30
0.
  9
$FILLETRAD
 40
       0.000000
  9
$FILLMODE
 70
1
  9
$HANDLING
 70
0
  9
$HANDSEED
  5
0
  9
$INSBASE
 10
       0.000000
 20
       0.000000
 30
       0.000000
  9
$LIMCHECK
 70
0
  9
$LIMMAX
 10
2685.90625
 20
1429.6746826172
  9
$LIMMIN
 10
-15.5634765625
 20
-15.563354492188
  9
$LTSCALE
 40
       1.000000
  9
$LUNITS
 70
2
  9
$LUPREC
 70
2
  9
$MAXACTVP
 70
16
  9
$MENU
  1
ACAD
  9
$MIRRTEXT
 70
0
  9
$ORTHOMODE
 70
0
  9
$OSMODE
 70
0
  9
$PDMODE
 70
0
  9
$PDSIZE
 40
       0.000000
  9
$PELEVATION
 40
       0.000000
  9
$PEXTMAX
 10
2685.90625
 20
1429.6746826172
 30
0.
  9
$PEXTMIN
 10
-15.5634765625
 20
-15.563354492188
 30
0.
  9
$PINSBASE
 10
       0.000000
 20
       0.000000
 30
       0.000000
  9
$PLIMCHECK
 70
0
  9
$PLIMMAX
 10
2685.90625
 20
1429.6746826172
  9
$PLIMMIN
 10
-15.5634765625
 20
-15.563354492188
  9
$PLINEGEN
 70
0
  9
$PLINEWID
 40
       0.000000
  9
$PSLTSCALE
 70
1
  9
$PUCSNAME
  2

  9
$PUCSORG
 10
       0.000000
 20
       0.000000
 30
       0.000000
  9
$PUCSXDIR
 10
       1.000000
 20
       0.000000
 30
       0.000000
  9
$PUCSYDIR
 10
       0.000000
 20
       1.000000
 30
       0.000000
  9
$QTEXTMODE
 70
0
  9
$REGENMODE
 70
1
  9
$SHADEDGE
 70
3
  9
$SHADEDIF
 70
70
  9
$SKETCHINC
 40
       1.000000
  9
$SKPOLY
 70
0
  9
$SPLFRAME
 70
0
  9
$SPLINESEGS
 70
8
  9
$SPLINETYPE
 70
6
  9
$SURFTAB1
 70
6
  9
$SURFTAB2
 70
6
  9
$SURFTYPE
 70
6
  9
$SURFU
 70
6
  9
$SURFV
 70
6
  9
$TDCREATE
 40
2457319.6118056
  9
$TDINDWG
 40
       0.000000
  9
$TDUPDATE
 40
2457319.6118056
  9
$TDUSRTIMER
 40
       0.000000
  9
$TEXTSIZE
 40
       3.500000
  9
$TEXTSTYLE
  7
STANDARD
  9
$THICKNESS
 40
       0.000000
  9
$TILEMODE
 70
1
  9
$TRACEWID
 40
       1.000000
  9
$TREEDEPTH
 70
-3020
  9
$UCSNAME
  2

  9
$UCSORG
 10
       0.000000
 20
       0.000000
 30
       0.000000
  9
$UCSXDIR
 10
       1.000000
 20
       0.000000
 30
       0.000000
  9
$UCSYDIR
 10
       0.000000
 20
       1.000000
 30
       0.000000
  9
$UNITMODE
 70
0
  9
$USERI1
 70
0
  9
$USERI2
 70
0
  9
$USERI3
 70
0
  9
$USERI4
 70
0
  9
$USERI5
 70
0
  9
$USERR1
 40
       0.000000
  9
$USERR2
 40
       0.000000
  9
$USERR3
 40
       0.000000
  9
$USERR4
 40
       0.000000
  9
$USERR5
 40
       0.000000
  9
$USRTIMER
 70
0
  9
$VISRETAIN
 70
0
  9
$WORLDVIEW
 70
1
  0
ENDSEC
  0
SECTION
  2
TABLES
  0
TABLE
  2
LTYPE
 70
167
  0
LTYPE
  2
AUSGEZOGEN
 70
0
  3
________________________________
 72
65
 73
2
 40
16.
 49
16.
 49
0.
  0
LTYPE
  2
VERDECKTE_KANTE
 70
0
  3
__________________________
 72
65
 73
2
 40
5.
 49
4.063
 49
-0.938
  0
LTYPE
  2
HILFSLINIE
 70
0
  3
________________________________
 72
65
 73
2
 40
16.
 49
16.
 49
0.
  0
LTYPE
  2
BRUCHLINIE
 70
0
  3
________________________________
 72
65
 73
2
 40
16.
 49
16.
 49
0.
  0
LTYPE
  2
MITTELLINIE
 70
0
  3
_______________________   ___
 72
65
 73
4
 40
13.
 49
9.34
 49
-1.22
 49
1.22
 49
-1.22
  0
LTYPE
  2
SCHNITTLINIE
 70
0
  3
_______________________   ___
 72
65
 73
4
 40
13.
 49
9.34
 49
-1.22
 49
1.22
 49
-1.22
  0
LTYPE
  2
SCHWERLINIE
 70
0
  3
______________________  __  __
 72
65
 73
6
 40
15.
 49
10.31
 49
-0.94
 49
0.94
 49
-0.94
 49
0.94
 49
-0.94
  0
LTYPE
  2
ENTWURFSLINIE
 70
0
  3
__      __      __      __
 72
65
 73
8
 40
16.
 49
1.
 49
-3.
 49
1.
 49
-3.
 49
1.
 49
-3.
 49
1.
 49
-3.
  0
LTYPE
  2
SONDERLINIE1
 70
0
  3
________________________________
 72
65
 73
2
 40
16.
 49
16.
 49
0.
  0
LTYPE
  2
SONDERLINIE2
 70
0
  3
______________________  __  __
 72
65
 73
6
 40
15.
 49
10.31
 49
-0.94
 49
0.94
 49
-0.94
 49
0.94
 49
-0.94
  0
LTYPE
  2
SONDERLINIE3
 70
0
  3
__________________  __  __  __
 72
65
 73
8
 40
16.
 49
9.
 49
-1.
 49
1.
 49
-1.
 49
1.
 49
-1.
 49
1.
 49
-1.
  0
LTYPE
  2
SONDERLINIE4
 70
0
  3
__________________  __  __  __
 72
65
 73
8
 40
16.
 49
9.
 49
-1.
 49
1.
 49
-1.
 49
1.
 49
-1.
 49
1.
 49
-1.
  0
LTYPE
  2
SONDERLINIE5
 70
0
  3
______________  __  __  __  __
 72
65
 73
10
 40
16.
 49
7.
 49
-1.
 49
1.
 49
-1.
 49
1.
 49
-1.
 49
1.
 49
-1.
 49
1.
 49
-1.
  0
LTYPE
  2
SONDERLINIE6
 70
0
  3
______________  __  __  __  __
 72
65
 73
10
 40
16.
 49
7.
 49
-1.
 49
1.
 49
-1.
 49
1.
 49
-1.
 49
1.
 49
-1.
 49
1.
 49
-1.
  0
LTYPE
  2
SONDERLINIE7
 70
0
  3
__________  __  __  __  __  __
 72
65
 73
12
 40
16.
 49
5.
 49
-1.
 49
1.
 49
-1.
 49
1.
 49
-1.
 49
1.
 49
-1.
 49
1.
 49
-1.
 49
1.
 49
-1.
  0
LTYPE
  2
SONDERLINIE8
 70
0
  3
__________  __  __  __  __  __
 72
65
 73
12
 40
16.
 49
5.
 49
-1.
 49
1.
 49
-1.
 49
1.
 49
-1.
 49
1.
 49
-1.
 49
1.
 49
-1.
 49
1.
 49
-1.
  0
LTYPE
  2
HEIZUNG-VORLAUF
 70
0
  3
 
 72
65
 73
2
 40
16.
 49
16.
 49
0.
  0
LTYPE
  2
HEIZUNG-RUECKLAUF
 70
0
  3
 
 72
65
 73
2
 40
5.
 49
4.063
 49
-0.938
  0
LTYPE
  2
TRINKWASSER-KALT
 70
0
  3
 
 72
65
 73
2
 40
16.
 49
16.
 49
0.
  0
LTYPE
  2
TRINKWASSER-WARM
 70
0
  3
 
 72
65
 73
2
 40
5.
 49
4.063
 49
-0.938
  0
LTYPE
  2
TRINKWASSER-ZIRKULATION
 70
0
  3
 
 72
65
 73
4
 40
13.
 49
9.34
 49
-1.22
 49
1.22
 49
-1.22
  0
LTYPE
  2
SANITAER-SCHMUTZWASSER
 70
0
  3
 
 72
65
 73
2
 40
16.
 49
16.
 49
0.
  0
LTYPE
  2
SANITAER-REGENWASSER
 70
0
  3
 
 72
65
 73
2
 40
5.
 49
4.063
 49
-0.938
  0
LTYPE
  2
SANITAER-MISCHWASSER
 70
0
  3
 
 72
65
 73
4
 40
13.
 49
9.34
 49
-1.22
 49
1.22
 49
-1.22
  0
LTYPE
  2
SANITAER-ENTLUEFTUNG
 70
0
  3
 
 72
65
 73
2
 40
5.
 49
4.063
 49
-0.938
  0
LTYPE
  2
SPRINKLER
 70
0
  3
 
 72
65
 73
2
 40
16.
 49
16.
 49
0.
  0
LTYPE
  2
WERKWASSER
 70
0
  3
 
 72
65
 73
2
 40
16.
 49
16.
 49
0.
  0
LTYPE
  2
KUEHLWASSER-VL
 70
0
  3
 
 72
65
 73
2
 40
16.
 49
16.
 49
0.
  0
LTYPE
  2
KUEHLWASSER-RL-D
 70
0
  3
 
 72
65
 73
2
 40
5.
 49
4.063
 49
-0.938
  0
LTYPE
  2
KUEHLWASSER-RL-DI
 70
0
  3
 
 72
65
 73
2
 40
5.
 49
4.063
 49
-0.938
  0
LTYPE
  2
KALTWASSER-KAELTEANL--VL
 70
0
  3
 
 72
65
 73
2
 40
16.
 49
16.
 49
0.
  0
LTYPE
  2
KALTWASSER-KAELTEANL--RL
 70
0
  3
 
 72
65
 73
2
 40
5.
 49
4.063
 49
-0.938
  0
LTYPE
  2
SCHLEIFEMULSION
 70
0
  3
 
 72
65
 73
2
 40
16.
 49
16.
 49
0.
  0
LTYPE
  2
BOHREMULSION
 70
0
  3
 
 72
65
 73
2
 40
16.
 49
16.
 49
0.
  0
LTYPE
  2
SCHNEIDEMULSION
 70
0
  3
 
 72
65
 73
2
 40
16.
 49
16.
 49
0.
  0
LTYPE
  2
DRUCKLUFT-HAUPTNETZ
 70
0
  3
 
 72
65
 73
2
 40
16.
 49
16.
 49
0.
  0
LTYPE
  2
DRUCKLUFT-HOCHDRUCKNETZ
 70
0
  3
 
 72
65
 73
2
 40
16.
 49
16.
 49
0.
  0
LTYPE
  2
DRUCKLUFT-NIEDERDRUCKNETZ
 70
0
  3
 
 72
65
 73
2
 40
16.
 49
16.
 49
0.
  0
LTYPE
  2
MISCHWASSER-DRUCK
 70
0
  3
 
 72
65
 73
2
 40
16.
 49
16.
 49
0.
  0
LTYPE
  2
MISCHWASSER-KANAL
 70
0
  3
 
 72
65
 73
2
 40
16.
 49
16.
 49
0.
  0
LTYPE
  2
OELHALTIGES-ABWASSER-DRUCK
 70
0
  3
 
 72
65
 73
2
 40
16.
 49
16.
 49
0.
  0
LTYPE
  2
OELHALTIGES-ABWASSER-KANAL
 70
0
  3
 
 72
65
 73
2
 40
16.
 49
16.
 49
0.
  0
LTYPE
  2
REGENWASSER-DRUCK
 70
0
  3
 
 72
65
 73
2
 40
16.
 49
16.
 49
0.
  0
LTYPE
  2
REGENWASSER-KANAL
 70
0
  3
 
 72
65
 73
2
 40
16.
 49
16.
 49
0.
  0
LTYPE
  2
SCHMUTZWASSER-DRUCK
 70
0
  3
 
 72
65
 73
2
 40
16.
 49
16.
 49
0.
  0
LTYPE
  2
SCHMUTZWASSER-KANAL
 70
0
  3
 
 72
65
 73
2
 40
16.
 49
16.
 49
0.
  0
LTYPE
  2
ALTEMULSION
 70
0
  3
 
 72
65
 73
2
 40
16.
 49
16.
 49
0.
  0
LTYPE
  2
ALTWASCHWASSER
 70
0
  3
 
 72
65
 73
2
 40
16.
 49
16.
 49
0.
  0
LTYPE
  2
CHROMHALTIGES-SPUELWASSER
 70
0
  3
 
 72
65
 73
2
 40
16.
 49
16.
 49
0.
  0
LTYPE
  2
CYANIDHALTIGES-SPUELWASSER
 70
0
  3
 
 72
65
 73
2
 40
16.
 49
16.
 49
0.
  0
LTYPE
  2
GEKLAERTES-ABWASSER
 70
0
  3
 
 72
65
 73
2
 40
16.
 49
16.
 49
0.
  0
LTYPE
  2
NITRITHALTIGES-SPUELWASSER
 70
0
  3
 
 72
65
 73
2
 40
16.
 49
16.
 49
0.
  0
LTYPE
  2
SAURES-ALKALISCHES-ELUAT
 70
0
  3
 
 72
65
 73
2
 40
16.
 49
16.
 49
0.
  0
LTYPE
  2
SAURES-ALKALISCHES-SPUELWASSER
 70
0
  3
 
 72
65
 73
2
 40
16.
 49
16.
 49
0.
  0
LTYPE
  2
AMIDASULFONSAEURE
 70
0
  3
 
 72
65
 73
2
 40
16.
 49
16.
 49
0.
  0
LTYPE
  2
CHROMHALTIGES-KONZENTRAT
 70
0
  3
 
 72
65
 73
2
 40
16.
 49
16.
 49
0.
  0
LTYPE
  2
CYANIDHALTIGES-KONZENTRAT
 70
0
  3
 
 72
65
 73
2
 40
16.
 49
16.
 49
0.
  0
LTYPE
  2
ELEKTROLYT
 70
0
  3
 
 72
65
 73
2
 40
16.
 49
16.
 49
0.
  0
LTYPE
  2
NATRIUMBISULFIT
 70
0
  3
 
 72
65
 73
2
 40
16.
 49
16.
 49
0.
  0
LTYPE
  2
NATRIUMHYPOCHLORIT
 70
0
  3
 
 72
65
 73
2
 40
16.
 49
16.
 49
0.
  0
LTYPE
  2
NATRONLAUGE
 70
0
  3
 
 72
65
 73
2
 40
16.
 49
16.
 49
0.
  0
LTYPE
  2
NITRITHALTIGES-KONZENTRAT
 70
0
  3
 
 72
65
 73
2
 40
16.
 49
16.
 49
0.
  0
LTYPE
  2
PHOSPHORSAEURE
 70
0
  3
 
 72
65
 73
2
 40
16.
 49
16.
 49
0.
  0
LTYPE
  2
SALPETERSAEURE
 70
0
  3
 
 72
65
 73
2
 40
16.
 49
16.
 49
0.
  0
LTYPE
  2
SALZSAEURE
 70
0
  3
 
 72
65
 73
2
 40
16.
 49
16.
 49
0.
  0
LTYPE
  2
SCHWEFELSAEURE
 70
0
  3
 
 72
65
 73
2
 40
16.
 49
16.
 49
0.
  0
LTYPE
  2
BETRIEBSWAERME-RL
 70
0
  3
 
 72
65
 73
2
 40
5.
 49
4.063
 49
-0.938
  0
LTYPE
  2
BETRIEBSWAERME-VL
 70
0
  3
 
 72
65
 73
2
 40
16.
 49
16.
 49
0.
  0
LTYPE
  2
WARMWASSER-VL
 70
0
  3
 
 72
65
 73
2
 40
16.
 49
16.
 49
0.
  0
LTYPE
  2
WARMWASSER-ZIRKULATION
 70
0
  3
 
 72
65
 73
4
 40
13.
 49
9.34
 49
-1.22
 49
1.22
 49
-1.22
  0
LTYPE
  2
ROHWASSER
 70
0
  3
 
 72
65
 73
2
 40
16.
 49
16.
 49
0.
  0
LTYPE
  2
ARGON
 70
0
  3
 
 72
65
 73
2
 40
16.
 49
16.
 49
0.
  0
LTYPE
  2
CORGON
 70
0
  3
 
 72
65
 73
2
 40
16.
 49
16.
 49
0.
  0
LTYPE
  2
KOHLENDIOXID
 70
0
  3
 
 72
65
 73
2
 40
16.
 49
16.
 49
0.
  0
LTYPE
  2
STICKSTOFF
 70
0
  3
 
 72
65
 73
2
 40
16.
 49
16.
 49
0.
  0
LTYPE
  2
AZETYLEN
 70
0
  3
 
 72
65
 73
2
 40
16.
 49
16.
 49
0.
  0
LTYPE
  2
ERDGAS
 70
0
  3
 
 72
65
 73
2
 40
16.
 49
16.
 49
0.
  0
LTYPE
  2
SAUERSTOFF--TECHNISCH-REIN
 70
0
  3
 
 72
65
 73
2
 40
16.
 49
16.
 49
0.
  0
LTYPE
  2
TRAEGERGAS
 70
0
  3
 
 72
65
 73
2
 40
16.
 49
16.
 49
0.
  0
LTYPE
  2
WASSERSTOFF
 70
0
  3
 
 72
65
 73
2
 40
16.
 49
16.
 49
0.
  0
LTYPE
  2
KRAFTSTOFF-GK-A-I-D
 70
0
  3
 
 72
65
 73
2
 40
16.
 49
16.
 49
0.
  0
LTYPE
  2
KRAFTSTOFF-SONDER-D
 70
0
  3
 
 72
65
 73
2
 40
16.
 49
16.
 49
0.
  0
LTYPE
  2
ACHSOEL
 70
0
  3
 
 72
65
 73
2
 40
16.
 49
16.
 49
0.
  0
LTYPE
  2
ALTOEL
 70
0
  3
 
 72
65
 73
2
 40
16.
 49
16.
 49
0.
  0
LTYPE
  2
BOHROEL
 70
0
  3
 
 72
65
 73
2
 40
16.
 49
16.
 49
0.
  0
LTYPE
  2
ERODIEROEL
 70
0
  3
 
 72
65
 73
2
 40
16.
 49
16.
 49
0.
  0
LTYPE
  2
FETT
 70
0
  3
 
 72
65
 73
2
 40
16.
 49
16.
 49
0.
  0
LTYPE
  2
GETRIEBEOEL
 70
0
  3
 
 72
65
 73
2
 40
16.
 49
16.
 49
0.
  0
LTYPE
  2
HAERTEOEL
 70
0
  3
 
 72
65
 73
2
 40
16.
 49
16.
 49
0.
  0
LTYPE
  2
HONOEL
 70
0
  3
 
 72
65
 73
2
 40
16.
 49
16.
 49
0.
  0
LTYPE
  2
HYDRAULIKOEL
 70
0
  3
 
 72
65
 73
2
 40
16.
 49
16.
 49
0.
  0
LTYPE
  2
MOTOROEL
 70
0
  3
 
 72
65
 73
2
 40
16.
 49
16.
 49
0.
  0
LTYPE
  2
NORMALSPUELOEL
 70
0
  3
 
 72
65
 73
2
 40
16.
 49
16.
 49
0.
  0
LTYPE
  2
RAEUMOEL
 70
0
  3
 
 72
65
 73
2
 40
16.
 49
16.
 49
0.
  0
LTYPE
  2
SCHLEIFOEL
 70
0
  3
 
 72
65
 73
2
 40
16.
 49
16.
 49
0.
  0
LTYPE
  2
SCHNEIDOEL
 70
0
  3
 
 72
65
 73
2
 40
16.
 49
16.
 49
0.
  0
LTYPE
  2
SONDERSPUELOEL
 70
0
  3
 
 72
65
 73
2
 40
16.
 49
16.
 49
0.
  0
LTYPE
  2
ZIEHOEL
 70
0
  3
 
 72
65
 73
2
 40
16.
 49
16.
 49
0.
  0
LTYPE
  2
MONTAGEOEL
 70
0
  3
 
 72
65
 73
2
 40
16.
 49
16.
 49
0.
  0
LTYPE
  2
MONTAGE-GLEITOEL
 70
0
  3
 
 72
65
 73
2
 40
16.
 49
16.
 49
0.
  0
LTYPE
  2
SPUELOEL
 70
0
  3
 
 72
65
 73
2
 40
16.
 49
16.
 49
0.
  0
LTYPE
  2
TIEFBOHROEL
 70
0
  3
 
 72
65
 73
2
 40
16.
 49
16.
 49
0.
  0
LTYPE
  2
AMIN
 70
0
  3
 
 72
65
 73
2
 40
16.
 49
16.
 49
0.
  0
LTYPE
  2
HAERTER
 70
0
  3
 
 72
65
 73
2
 40
16.
 49
16.
 49
0.
  0
LTYPE
  2
HARZ
 70
0
  3
 
 72
65
 73
2
 40
16.
 49
16.
 49
0.
  0
LTYPE
  2
LOESEMITTEL
 70
0
  3
 
 72
65
 73
2
 40
16.
 49
16.
 49
0.
  0
LTYPE
  2
LACK
 70
0
  3
 
 72
65
 73
2
 40
16.
 49
16.
 49
0.
  0
LTYPE
  2
WASCHWASSER
 70
0
  3
 
 72
65
 73
2
 40
16.
 49
16.
 49
0.
  0
LTYPE
  2
GLEITSCHLEIFWASSER
 70
0
  3
 
 72
65
 73
2
 40
16.
 49
16.
 49
0.
  0
LTYPE
  2
VERDUENNUNG
 70
0
  3
 
 72
65
 73
2
 40
16.
 49
16.
 49
0.
  0
LTYPE
  2
KUEHLDECKEN-VORLAUF
 70
0
  3
 
 72
65
 73
2
 40
16.
 49
16.
 49
0.
  0
LTYPE
  2
KUEHLDECKEN-RUECKLAUF
 70
0
  3
 
 72
65
 73
2
 40
5.
 49
4.063
 49
-0.938
  0
LTYPE
  2
KONDENSAT
 70
0
  3
 
 72
65
 73
2
 40
16.
 49
16.
 49
0.
  0
LTYPE
  2
KONDENSAT-REINDAMPF
 70
0
  3
 
 72
65
 73
2
 40
16.
 49
16.
 49
0.
  0
LTYPE
  2
KONDENSAT-HOCHDRUCK
 70
0
  3
 
 72
65
 73
2
 40
16.
 49
16.
 49
0.
  0
LTYPE
  2
DAMPF
 70
0
  3
 
 72
65
 73
2
 40
16.
 49
16.
 49
0.
  0
LTYPE
  2
REINDAMPF
 70
0
  3
 
 72
65
 73
2
 40
16.
 49
16.
 49
0.
  0
LTYPE
  2
DAMPF-HOCHDRUCK
 70
0
  3
 
 72
65
 73
2
 40
16.
 49
16.
 49
0.
  0
LTYPE
  2
KLIMA-ZENTRALE
 70
0
  3
 
 72
65
 73
2
 40
16.
 49
16.
 49
0.
  0
LTYPE
  2
KLIMA-AUSSENLUFT
 70
0
  3
 
 72
65
 73
4
 40
13.
 49
9.34
 49
-1.22
 49
1.22
 49
-1.22
  0
LTYPE
  2
KLIMA-ZULUFT-I
 70
0
  3
 
 72
65
 73
2
 40
16.
 49
16.
 49
0.
  0
LTYPE
  2
KLIMA-ZULUFT-II
 70
0
  3
 
 72
65
 73
2
 40
16.
 49
16.
 49
0.
  0
LTYPE
  2
KLIMA-ZULUFT-III
 70
0
  3
 
 72
65
 73
2
 40
16.
 49
16.
 49
0.
  0
LTYPE
  2
KLIMA-ZULUFT-IV
 70
0
  3
 
 72
65
 73
2
 40
16.
 49
16.
 49
0.
  0
LTYPE
  2
KLIMA-UMLUFT
 70
0
  3
 
 72
65
 73
2
 40
5.
 49
4.063
 49
-0.938
  0
LTYPE
  2
KLIMA-MISCHLUFT
 70
0
  3
 
 72
65
 73
6
 40
11.
 49
3.78
 49
-1.03
 49
3.78
 49
-1.03
 49
0.34
 49
-1.03
  0
LTYPE
  2
KLIMA-ABLUFT
 70
0
  3
 
 72
65
 73
2
 40
5.
 49
4.063
 49
-0.938
  0
LTYPE
  2
KLIMA-FORTLUFT
 70
0
  3
 
 72
65
 73
2
 40
5.
 49
4.063
 49
-0.938
  0
LTYPE
  2
ENTRAUCHUNG
 70
0
  3
 
 72
65
 73
2
 40
5.
 49
4.063
 49
-0.938
  0
LTYPE
  2
ELEKTRO-ZENTRALE
 70
0
  3
 
 72
65
 73
2
 40
16.
 49
16.
 49
0.
  0
LTYPE
  2
STROMSCHIENEN
 70
0
  3
 
 72
65
 73
2
 40
16.
 49
16.
 49
0.
  0
LTYPE
  2
ELEKTRO-LEITUNGSFUEHRUNG
 70
0
  3
 
 72
65
 73
2
 40
16.
 49
16.
 49
0.
  0
LTYPE
  2
ELEKTRO-KABELTRAEGER
 70
0
  3
 
 72
65
 73
2
 40
16.
 49
16.
 49
0.
  0
LTYPE
  2
INNENWAND
 70
0
  3
 
 72
65
 73
2
 40
16.
 49
16.
 49
0.
  0
LTYPE
  2
AUSSENWAND
 70
0
  3
 
 72
65
 73
2
 40
16.
 49
16.
 49
0.
  0
LTYPE
  2
ERDBERUEHRENDE-WAND
 70
0
  3
 
 72
65
 73
2
 40
16.
 49
16.
 49
0.
  0
LTYPE
  2
REINWASSER
 70
0
  3
 
 72
65
 73
2
 40
16.
 49
16.
 49
0.
  0
LTYPE
  2
MESSWASSER
 70
0
  3
 
 72
65
 73
2
 40
16.
 49
16.
 49
0.
  0
LTYPE
  2
SCHWALLWASSER
 70
0
  3
 
 72
65
 73
2
 40
16.
 49
16.
 49
0.
  0
LTYPE
  2
SCHLAMMWASSER
 70
0
  3
 
 72
65
 73
2
 40
16.
 49
16.
 49
0.
  0
LTYPE
  2
ERSTFILTRAT
 70
0
  3
 
 72
65
 73
2
 40
16.
 49
16.
 49
0.
  0
LTYPE
  2
FILTRAT
 70
0
  3
 
 72
65
 73
2
 40
16.
 49
16.
 49
0.
  0
LTYPE
  2
SOLE-FILTRAT
 70
0
  3
 
 72
65
 73
2
 40
16.
 49
16.
 49
0.
  0
LTYPE
  2
SOLE-REINWASSER
 70
0
  3
 
 72
65
 73
2
 40
16.
 49
16.
 49
0.
  0
LTYPE
  2
SOLE-ROHWASSER
 70
0
  3
 
 72
65
 73
2
 40
16.
 49
16.
 49
0.
  0
LTYPE
  2
SPUELWASSER
 70
0
  3
 
 72
65
 73
2
 40
16.
 49
16.
 49
0.
  0
LTYPE
  2
SPUELLUFT
 70
0
  3
 
 72
65
 73
2
 40
16.
 49
16.
 49
0.
  0
LTYPE
  2
CHLORLOESUNG
 70
0
  3
 
 72
65
 73
2
 40
16.
 49
16.
 49
0.
  0
LTYPE
  2
PH-LOESUNG
 70
0
  3
 
 72
65
 73
2
 40
16.
 49
16.
 49
0.
  0
LTYPE
  2
FLOCKUNGSMITTEL
 70
0
  3
 
 72
65
 73
2
 40
16.
 49
16.
 49
0.
  0
LTYPE
  2
SEEWASSER--KALT
 70
0
  3
 
 72
65
 73
2
 40
16.
 49
16.
 49
0.
  0
LTYPE
  2
SEEWASSER--WARM
 70
0
  3
 
 72
65
 73
2
 40
5.
 49
4.063
 49
-0.938
  0
LTYPE
  2
SEEWASSER--ZIRKULATION
 70
0
  3
 
 72
65
 73
4
 40
13.
 49
9.34
 49
-1.22
 49
1.22
 49
-1.22
  0
LTYPE
  2
LABORWASSER--KALT
 70
0
  3
 
 72
65
 73
2
 40
16.
 49
16.
 49
0.
  0
LTYPE
  2
LABORWASSER--WARM
 70
0
  3
 
 72
65
 73
2
 40
5.
 49
4.063
 49
-0.938
  0
LTYPE
  2
LABORWASSER--ZIRKULATION
 70
0
  3
 
 72
65
 73
4
 40
13.
 49
9.34
 49
-1.22
 49
1.22
 49
-1.22
  0
LTYPE
  2
WASSER-VOLL-ENTHAERTET-VL
 70
0
  3
 
 72
65
 73
2
 40
16.
 49
16.
 49
0.
  0
LTYPE
  2
WASSER-VOLL-ENTHAERTET-RL
 70
0
  3
 
 72
65
 73
2
 40
16.
 49
16.
 49
0.
  0
LTYPE
  2
PROZESSKUEHLWASSER-VL
 70
0
  3
 
 72
65
 73
2
 40
16.
 49
16.
 49
0.
  0
LTYPE
  2
PROZESSKUEHLWASSER-RL
 70
0
  3
 
 72
65
 73
2
 40
16.
 49
16.
 49
0.
  0
LTYPE
  2
EINBAURAUM
 70
0
  3
 
 72
65
 73
2
 40
16.
 49
16.
 49
0.
  0
LTYPE
  2
INNENRAUM
 70
0
  3
 
 72
65
 73
2
 40
16.
 49
16.
 49
0.
  0
LTYPE
  2
BODENPLATTE
 70
0
  3
 
 72
65
 73
2
 40
16.
 49
16.
 49
0.
  0
LTYPE
  2
DECKE
 70
0
  3
 
 72
65
 73
2
 40
16.
 49
16.
 49
0.
  0
LTYPE
  2
DACH
 70
0
  3
 
 72
65
 73
2
 40
16.
 49
16.
 49
0.
  0
LTYPE
  2
KAELTEMITTEL-VORLAUF
 70
0
  3
 
 72
65
 73
2
 40
16.
 49
16.
 49
0.
  0
LTYPE
  2
KAELTEMITTEL-RUECKLAUF
 70
0
  3
 
 72
65
 73
2
 40
16.
 49
16.
 49
0.
  0
ENDTAB
  0
TABLE
  2
LAYER
 70
25
  0
LAYER
  2
0
 62
7
  6
AUSGEZOGEN
 70
64
  0
LAYER
  2
SICHTBARE_KANTE
 62
7
  6
AUSGEZOGEN
 70
64
  0
LAYER
  2
VERDECKTE_KANTE
 62
8
  6
VERDECKTE_KANTE
 70
64
  0
LAYER
  2
HILFSLINIE
 62
8
  6
HILFSLINIE
 70
64
  0
LAYER
  2
BRUCHLINIE
 62
8
  6
BRUCHLINIE
 70
64
  0
LAYER
  2
MITTELLINIE
 62
8
  6
MITTELLINIE
 70
64
  0
LAYER
  2
SCHNITTLINIE
 62
7
  6
SCHNITTLINIE
 70
64
  0
LAYER
  2
SCHWERLINIE
 62
8
  6
SCHWERLINIE
 70
64
  0
LAYER
  2
ENTWURFSLINIE
 62
8
  6
ENTWURFSLINIE
 70
64
  0
LAYER
  2
SONDERLINIE_1
 62
8
  6
SONDERLINIE1
 70
64
  0
LAYER
  2
SONDERLINIE_2
 62
8
  6
SONDERLINIE2
 70
64
  0
LAYER
  2
SONDERLINIE_3
 62
8
  6
SONDERLINIE3
 70
64
  0
LAYER
  2
SONDERLINIE_4
 62
8
  6
SONDERLINIE4
 70
64
  0
LAYER
  2
SONDERLINIE_5
 62
8
  6
SONDERLINIE5
 70
64
  0
LAYER
  2
SONDERLINIE_6
 62
8
  6
SONDERLINIE6
 70
64
  0
LAYER
  2
SONDERLINIE_7
 62
8
  6
SONDERLINIE7
 70
64
  0
LAYER
  2
SONDERLINIE_8
 62
8
  6
SONDERLINIE8
 70
64
  0
LAYER
  2
2D-TEXT
 62
7
  6
AUSGEZOGEN
 70
64
  0
LAYER
  2
SCHRAFFUR
 62
8
  6
HILFSLINIE
 70
64
  0
LAYER
  2
SYMBOL
 62
7
  6
HILFSLINIE
 70
64
  0
LAYER
  2
BEMASSUNG
 62
8
  6
HILFSLINIE
 70
64
  0
LAYER
  2
OBERFLAECHENZEICHEN
 62
8
  6
HILFSLINIE
 70
64
  0
LAYER
  2
FORM-LAGE-TOLERANZEN
 62
8
  6
HILFSLINIE
 70
64
  0
LAYER
  2
SCHWEISSZEICHEN
 62
8
  6
HILFSLINIE
 70
64
  0
LAYER
  2
GRUNDEBENE
 62
7
  6
AUSGEZOGEN
 70
64
  0
ENDTAB
  0
TABLE
  2
STYLE
 70
23
  0
STYLE
  2
STANDARD
 70
0
 40
0
 41
       1.000000
 50
       0.000000
 71
0
 42
       3.500000
  3
isocp
  4

  0
STYLE
  2
DIN-EN-ISO-3098
 70
0
 40
0
 41
       1.000000
 50
       0.000000
 71
0
 42
       3.500000
  3
isocp
  4

  0
STYLE
  2
ROMAN
 70
0
 40
0
 41
       1.000000
 50
       0.000000
 71
0
 42
       3.500000
  3
romans.shx
  4

  0
STYLE
  2
SCRIPT
 70
0
 40
0
 41
       1.000000
 50
       0.000000
 71
0
 42
       3.500000
  3
scripts.shx
  4

  0
STYLE
  2
GRIECHISCH
 70
0
 40
0
 41
       1.000000
 50
       0.000000
 71
0
 42
       3.500000
  3
greeks.shx
  4

  0
STYLE
  2
KYRILLISCH
 70
0
 40
0
 41
       1.000000
 50
       0.000000
 71
0
 42
       3.500000
  3
cyrillic.shx
  4

  0
STYLE
  2
MATH--FORMELZEICHEN
 70
0
 40
0
 41
       1.000000
 50
       0.000000
 71
0
 42
       3.500000
  3
symath.shx
  4

  0
STYLE
  2
DOPPELLINIE
 70
0
 40
0
 41
       1.000000
 50
       0.000000
 71
0
 42
       3.500000
  3
swissko.ttf
  4

  0
STYLE
  2
SERIFENSCHRIFT
 70
0
 40
0
 41
       1.000000
 50
       0.000000
 71
0
 42
       3.500000
  3
romanc__.ttf
  4

  0
STYLE
  2
ARIAL
 70
0
 40
0
 41
       1.000000
 50
       0.000000
 71
0
 42
       3.500000
  3
arial.ttf
  4

  0
STYLE
  2
ARIAL-FETT
 70
0
 40
0
 41
       1.000000
 50
       0.000000
 71
0
 42
       3.500000
  3
arialbd.ttf
  4

  0
STYLE
  2
TIMES-NEW-ROMAN
 70
0
 40
0
 41
       1.000000
 50
       0.000000
 71
0
 42
       3.500000
  3
times.ttf
  4

  0
STYLE
  2
TIMES-NEW-ROMAN-FETT
 70
0
 40
0
 41
       1.000000
 50
       0.000000
 71
0
 42
       3.500000
  3
timesbd.ttf
  4

  0
STYLE
  2
ISO-3098-OSTEUROPA
 70
0
 40
0
 41
       1.000000
 50
       0.000000
 71
0
 42
       3.500000
  3
txt
  4

  0
STYLE
  2
ISO-3098-KYRILLISCH
 70
0
 40
0
 41
       1.000000
 50
       0.000000
 71
0
 42
       3.500000
  3
txt
  4

  0
STYLE
  2
ARIAL-OSTEUROPA
 70
0
 40
0
 41
       1.000000
 50
       0.000000
 71
0
 42
       3.500000
  3
arial.ttf
  4

  0
STYLE
  2
ARIAL-KYRILLISCH
 70
0
 40
0
 41
       1.000000
 50
       0.000000
 71
0
 42
       3.500000
  3
arial.ttf
  4

  0
STYLE
  2
ARIAL-FETT-OSTEUROPA
 70
0
 40
0
 41
       1.000000
 50
       0.000000
 71
0
 42
       3.500000
  3
arialbd.ttf
  4

  0
STYLE
  2
ARIAL-FETT-KYRILLISCH
 70
0
 40
0
 41
       1.000000
 50
       0.000000
 71
0
 42
       3.500000
  3
arialbd.ttf
  4

  0
STYLE
  2
TIMES-N-R-OSTEUROPA
 70
0
 40
0
 41
       1.000000
 50
       0.000000
 71
0
 42
       3.500000
  3
times.ttf
  4

  0
STYLE
  2
TIMES-N-R-KYRILLISCH
 70
0
 40
0
 41
       1.000000
 50
       0.000000
 71
0
 42
       3.500000
  3
times.ttf
  4

  0
STYLE
  2
TIMES-N-R-FETT-OSTEUROPA
 70
0
 40
0
 41
       1.000000
 50
       0.000000
 71
0
 42
       3.500000
  3
timesbd.ttf
  4

  0
STYLE
  2
TIMES-N-R-FETT-KYRILLISCH
 70
0
 40
0
 41
       1.000000
 50
       0.000000
 71
0
 42
       3.500000
  3
timesbd.ttf
  4

  0
ENDTAB
  0
TABLE
  2
VIEW
 70
0
  0
ENDTAB
  0
TABLE
  2
VPORT
 70
2
  0
VPORT
  2
*ACTIVE
 70
0
 10
       0.000000
 20
       0.000000
 11
       1.000000
 21
       1.000000
 12
1335.1713867188
 22
707.0556640625
 13
       0.000000
 23
       0.000000
 14
       1.000000
 24
       1.000000
 15
       0.000000
 25
       0.000000
 16
       0.000000
 26
       0.000000
 36
       1.000000
 17
       0.000000
 27
       0.000000
 37
       0.000000
 40
1445.2380371094
 41
1.8692213027867
 42
      50.000000
 43
       0.000000
 44
       0.000000
 50
       0.000000
 51
       0.000000
 71
0
 72
100
 73
1
 74
1
 75
0
 76
0
 77
0
 78
0
  0
ENDTAB
  0
TABLE
  2
APPID
 70
2
  0
APPID
  2
ACAD
 70
0
  0
APPID
  2
AC2KIMGDXF12EXP
 70
0
  0
ENDTAB
  0
TABLE
  2
DIMSTYLE
 70
1
  0
DIMSTYLE
  2
STDBEM
 70
0
  3

  4

  5

  6

  7

 40
       1.000000
 41
       3.500000
 42
       0.100000
 43
       7.000000
 44
       1.800000
 45
       0.000000
 46
       0.000000
 47
       0.000000
 48
       0.000000
140
       3.500000
141
       1.500000
142
       0.000000
143
      25.400000
144
       1.000000
145
       0.000000
146
       1.000000
147
       0.090000
 71
0
 72
0
 73
0
 74
0
 75
0
 76
0
 77
1
 78
0
170
0
171
2
172
0
173
0
174
0
175
0
176
0
177
0
178
0
  0
ENDTAB
  0
ENDSEC
  0
SECTION
  2
BLOCKS
  0
ENDSEC
  0
SECTION
  2
ENTITIES
  0
ARC
  8
VERDECKTE_KANTE
 10
347.89074707031
 20
1398.1394042969
 30
0.
 40
9.
 50
193.24879652852
 51
269.99378301006
  0
ARC
  8
VERDECKTE_KANTE
 10
439.13098144531
 20
1398.1354980469
 30
0.
 40
9.
 50
270.
 51
345.90740091096
  0
ARC
  8
VERDECKTE_KANTE
 10
458.52941894531
 20
1393.2644042969
 30
0.
 40
11.
 50
147.88597147709
 51
165.9010697086
  0
ARC
  8
VERDECKTE_KANTE
 10
328.42199707031
 20
1393.5534667969
 30
0.
 40
11.
 50
13.261963916261
 51
30.353018934231
  0
ARC
  8
VERDECKTE_KANTE
 10
2039.1447753906
 20
1398.1394042969
 30
0.
 40
9.
 50
270.00621698994
 51
346.75124799657
  0
ARC
  8
VERDECKTE_KANTE
 10
1947.9045410156
 20
1398.1354980469
 30
0.
 40
9.
 50
194.09259908904
 51
270.
  0
ARC
  8
VERDECKTE_KANTE
 10
1928.5061035156
 20
1393.2644042969
 30
0.
 40
11.
 50
14.098852848869
 51
32.114028522908
  0
ARC
  8
VERDECKTE_KANTE
 10
2058.6135253906
 20
1393.5534667969
 30
0.
 40
11.
 50
149.6469007404
 51
166.73821840818
  0
LINE
  8
VERDECKTE_KANTE
 10
347.88977050781
 20
1389.1394042969
 30
0.
 11
439.13098144531
 21
1389.1354980469
 31
0.
  0
LINE
  8
VERDECKTE_KANTE
 10
2039.1457519531
 20
1389.1394042969
 30
0.
 11
1947.9045410156
 21
1389.1354980469
 31
0.
  0
ARC
  8
HILFSLINIE
 10
383.51779174805
 20
624.16906738281
 30
0.
 40
139.99977111816
 50
92.727840118251
 51
177.27215988175
  0
ARC
  8
HILFSLINIE
 10
593.51739501953
 20
-3783.3309326172
 30
0.
 40
4552.4990234375
 50
87.272139586644
 51
92.727849671274
  0
ARC
  8
HILFSLINIE
 10
803.51782226563
 20
624.16906738281
 30
0.
 40
139.99928283691
 50
2.7278508174635
 51
87.272150371342
  0
ARC
  8
HILFSLINIE
 10
-3603.982421875
 20
414.16925048828
 30
0.
 40
4552.4990234375
 50
357.27214265581
 51
2.7278527404406
  0
ARC
  8
HILFSLINIE
 10
593.51739501953
 20
4611.6690673828
 30
0.
 40
4552.4990234375
 50
267.27214994965
 51
272.72786043164
  0
ARC
  8
HILFSLINIE
 10
383.51779174805
 20
204.16906738281
 30
0.
 40
139.99977111816
 50
182.7279399211
 51
267.27214740639
  0
ARC
  8
HILFSLINIE
 10
4791.017578125
 20
414.16925048828
 30
0.
 40
4552.4995117188
 50
177.27214755203
 51
182.72786013917
  0
ARC
  8
HILFSLINIE
 10
383.51779174805
 20
624.16906738281
 30
0.
 40
88.999740600586
 50
92.727857567709
 51
177.27216112146
  0
ARC
  8
HILFSLINIE
 10
593.51739501953
 20
-3783.3309326172
 30
0.
 40
4501.4995117188
 50
87.272132674653
 51
92.727850216713
  0
ARC
  8
HILFSLINIE
 10
803.51782226563
 20
624.16906738281
 30
0.
 40
88.999740600586
 50
2.7278398135533
 51
87.271806951164
  0
ARC
  8
HILFSLINIE
 10
383.51779174805
 20
204.16906738281
 30
0.
 40
88.999931335449
 50
182.7278332685
 51
267.27214804237
  0
ARC
  8
HILFSLINIE
 10
593.51739501953
 20
4611.6690673828
 30
0.
 40
4501.4995117188
 50
267.27215055927
 51
272.72786033224
  0
ARC
  8
HILFSLINIE
 10
4791.017578125
 20
414.16925048828
 30
0.
 40
4501.4995117188
 50
177.27214745533
 51
182.72785741306
  0
ARC
  8
HILFSLINIE
 10
-3603.982421875
 20
414.16925048828
 30
0.
 40
4501.4995117188
 50
357.27214279943
 51
2.7278517686826
  0
ARC
  8
HILFSLINIE
 10
803.51782226563
 20
204.16906738281
 30
0.
 40
139.99928283691
 50
272.72784962866
 51
294.07504504357
  0
ARC
  8
HILFSLINIE
 10
803.51782226563
 20
204.16906738281
 30
0.
 40
88.999740600586
 50
349.18031977296
 51
357.27216018645
  0
ARC
  8
HILFSLINIE
 10
803.51782226563
 20
204.16906738281
 30
0.
 40
139.99928283691
 50
335.92495495643
 51
357.27214918254
  0
ARC
  8
HILFSLINIE
 10
205.51776123047
 20
802.16906738281
 30
0.
 40
6.
 50
90.
 51
180.
  0
ARC
  8
HILFSLINIE
 10
981.51776123047
 20
802.16906738281
 30
0.
 40
6.
 50
0.
 51
90.
  0
ARC
  8
HILFSLINIE
 10
981.51776123047
 20
26.169067382813
 30
0.
 40
6.
 50
270.
 51
0.
  0
ARC
  8
HILFSLINIE
 10
205.51776123047
 20
26.169067382813
 30
0.
 40
6.
 50
180.
 51
270.
  0
CIRCLE
  8
HILFSLINIE
 10
393.51779174805
 20
614.16906738281
 30
0.
 40
68.
  0
LINE
  8
HILFSLINIE
 10
981.51776123047
 20
808.16906738281
 30
0.
 11
205.51776123047
 21
808.16906738281
 31
0.
  0
LINE
  8
HILFSLINIE
 10
987.51776123047
 20
802.16906738281
 30
0.
 11
987.51776123047
 21
26.169067382813
 31
0.
  0
LINE
  8
HILFSLINIE
 10
981.51776123047
 20
20.169067382813
 30
0.
 11
205.51776123047
 21
20.169067382813
 31
0.
  0
LINE
  8
HILFSLINIE
 10
199.51776123047
 20
802.16906738281
 30
0.
 11
199.51776123047
 21
26.169067382813
 31
0.
  0
LINE
  8
HILFSLINIE
 10
2507.9516601563
 20
431.06909179688
 30
0.
 11
1281.2838134766
 21
431.06909179688
 31
0.
  0
LINE
  8
MITTELLINIE
 10
593.51776123047
 20
814.16906738281
 30
0.
 11
593.51776123047
 21
14.169067382813
 31
0.
  0
LINE
  8
MITTELLINIE
 10
993.51776123047
 20
414.16906738281
 30
0.
 11
193.51776123047
 21
414.16906738281
 31
0.
  0
LINE
  8
MITTELLINIE
 10
488.7177734375
 20
614.16906738281
 30
0.
 11
298.31774902344
 21
614.16906738281
 31
0.
  0
LINE
  8
MITTELLINIE
 10
393.51779174805
 20
518.96905517578
 30
0.
 11
393.51779174805
 21
709.36907958984
 31
0.
  0
LINE
  8
MITTELLINIE
 10
593.51770019531
 20
1431.0690917969
 30
0.
 11
593.51770019531
 21
1368.4401855469
 31
0.
  0
LINE
  8
MITTELLINIE
 10
393.51770019531
 20
1349.1354980469
 30
0.
 11
393.51770019531
 21
1431.0690917969
 31
0.
  0
LINE
  8
MITTELLINIE
 10
1793.5178222656
 20
1431.0690917969
 30
0.
 11
1793.5178222656
 21
1368.4401855469
 31
0.
  0
LINE
  8
MITTELLINIE
 10
1993.5178222656
 20
1349.1354980469
 30
0.
 11
1993.5178222656
 21
1431.0690917969
 31
0.
  0
ARC
  8
SICHTBARE_KANTE
 10
205.51776123047
 20
26.169067382813
 30
0.
 40
12.
 50
180.
 51
270.
  0
ARC
  8
SICHTBARE_KANTE
 10
593.51739501953
 20
4611.6690673828
 30
0.
 40
4532.4995117188
 50
267.27214990664
 51
272.7278694062
  0
ARC
  8
SICHTBARE_KANTE
 10
383.51779174805
 20
204.16906738281
 30
0.
 40
119.99990081787
 50
182.72786279042
 51
267.27215107068
  0
ARC
  8
SICHTBARE_KANTE
 10
4791.017578125
 20
414.16925048828
 30
0.
 40
4532.4995117188
 50
177.27214682393
 51
182.72785801117
  0
ARC
  8
SICHTBARE_KANTE
 10
205.51776123047
 20
802.16906738281
 30
0.
 40
12.
 50
90.
 51
180.
  0
ARC
  8
SICHTBARE_KANTE
 10
593.51739501953
 20
-3783.3309326172
 30
0.
 40
4532.4995117188
 50
87.272130584625
 51
92.727850111725
  0
ARC
  8
SICHTBARE_KANTE
 10
383.51779174805
 20
624.16906738281
 30
0.
 40
119.99990081787
 50
92.727848929315
 51
177.27213720958
  0
ARC
  8
SICHTBARE_KANTE
 10
981.51776123047
 20
26.169067382813
 30
0.
 40
12.
 50
270.
 51
0.
  0
ARC
  8
SICHTBARE_KANTE
 10
-3603.982421875
 20
414.16925048828
 30
0.
 40
4532.4995117188
 50
357.2721421815
 51
2.7278524237565
  0
ARC
  8
SICHTBARE_KANTE
 10
981.51776123047
 20
802.16906738281
 30
0.
 40
12.
 50
0.
 51
90.
  0
ARC
  8
SICHTBARE_KANTE
 10
803.51782226563
 20
624.16906738281
 30
0.
 40
119.99990081787
 50
2.7278634838901
 51
87.271816315549
  0
ARC
  8
SICHTBARE_KANTE
 10
803.51782226563
 20
204.16906738281
 30
0.
 40
119.99990081787
 50
272.72818368445
 51
290.37562892474
  0
ARC
  8
SICHTBARE_KANTE
 10
803.51782226563
 20
204.16906738281
 30
0.
 40
119.99990081787
 50
339.62433360997
 51
357.27213651611
  0
ARC
  8
SICHTBARE_KANTE
 10
803.51782226563
 20
204.16906738281
 30
0.
 40
119.99990081787
 50
272.72818368445
 51
290.37562892474
  0
ARC
  8
SICHTBARE_KANTE
 10
199.51770019531
 20
1425.0690917969
 30
0.
 40
6.
 50
90.
 51
180.
  0
ARC
  8
SICHTBARE_KANTE
 10
987.51770019531
 20
1405.1120605469
 30
0.
 40
6.
 50
270.
 51
0.
  0
ARC
  8
SICHTBARE_KANTE
 10
987.51770019531
 20
1425.0690917969
 30
0.
 40
6.
 50
0.
 51
95.248252321456
  0
ARC
  8
SICHTBARE_KANTE
 10
199.51770019531
 20
1405.1120605469
 30
0.
 40
6.
 50
180.
 51
270.
  0
ARC
  8
SICHTBARE_KANTE
 10
2187.5178222656
 20
1425.0690917969
 30
0.
 40
6.
 50
0.
 51
90.
  0
ARC
  8
SICHTBARE_KANTE
 10
1399.5178222656
 20
1405.1120605469
 30
0.
 40
6.
 50
180.
 51
270.
  0
ARC
  8
SICHTBARE_KANTE
 10
1399.5178222656
 20
1425.0690917969
 30
0.
 40
6.
 50
84.751747678544
 51
180.
  0
ARC
  8
SICHTBARE_KANTE
 10
2187.5178222656
 20
1405.1120605469
 30
0.
 40
6.
 50
270.
 51
0.
  0
LINE
  8
SICHTBARE_KANTE
 10
193.51776123047
 20
802.16906738281
 30
0.
 11
193.51776123047
 21
26.169067382813
 31
0.
  0
LINE
  8
SICHTBARE_KANTE
 10
981.51776123047
 20
14.169067382813
 30
0.
 11
205.51776123047
 21
14.169067382813
 31
0.
  0
LINE
  8
SICHTBARE_KANTE
 10
993.51776123047
 20
802.16906738281
 30
0.
 11
993.51776123047
 21
26.169067382813
 31
0.
  0
LINE
  8
SICHTBARE_KANTE
 10
981.51776123047
 20
814.16906738281
 30
0.
 11
205.51776123047
 21
814.16906738281
 31
0.
  0
LINE
  8
SICHTBARE_KANTE
 10
199.51770019531
 20
1431.0690917969
 30
0.
 11
987.51770019531
 21
1431.0690917969
 31
0.
  0
LINE
  8
SICHTBARE_KANTE
 10
993.51770019531
 20
1405.1120605469
 30
0.
 11
993.51770019531
 21
1425.0690917969
 31
0.
  0
LINE
  8
SICHTBARE_KANTE
 10
199.51770019531
 20
1399.1120605469
 30
0.
 11
987.51770019531
 21
1399.1120605469
 31
0.
  0
LINE
  8
SICHTBARE_KANTE
 10
193.51770019531
 20
1405.1120605469
 30
0.
 11
193.51770019531
 21
1425.0690917969
 31
0.
  0
LINE
  8
SICHTBARE_KANTE
 10
2187.5178222656
 20
1431.0690917969
 30
0.
 11
1399.5178222656
 21
1431.0690917969
 31
0.
  0
LINE
  8
SICHTBARE_KANTE
 10
1393.5178222656
 20
1405.1120605469
 30
0.
 11
1393.5178222656
 21
1425.0690917969
 31
0.
  0
LINE
  8
SICHTBARE_KANTE
 10
2187.5178222656
 20
1399.1120605469
 30
0.
 11
1399.5178222656
 21
1399.1120605469
 31
0.
  0
LINE
  8
SICHTBARE_KANTE
 10
2193.5178222656
 20
1405.1120605469
 30
0.
 11
2193.5178222656
 21
1425.0690917969
 31
0.
  0
LINE
  8
SICHTBARE_KANTE
 10
208.51770019531
 20
1311.0690917969
 30
0.
 11
978.51770019531
 21
1311.0690917969
 31
0.
  0
LINE
  8
SICHTBARE_KANTE
 10
2178.5178222656
 20
1311.0690917969
 30
0.
 11
1408.5178222656
 21
1311.0690917969
 31
0.
  0
LINE
  8
SICHTBARE_KANTE
 10
978.51770019531
 20
1311.0690917969
 30
0.
 11
978.51770019531
 21
1399.1120605469
 31
0.
  0
LINE
  8
SICHTBARE_KANTE
 10
208.51770019531
 20
1311.0690917969
 30
0.
 11
208.51770019531
 21
1399.1120605469
 31
0.
  0
LINE
  8
SICHTBARE_KANTE
 10
1408.5178222656
 20
1311.0690917969
 30
0.
 11
1408.5178222656
 21
1399.1120605469
 31
0.
  0
LINE
  8
SICHTBARE_KANTE
 10
2178.5178222656
 20
1311.0690917969
 30
0.
 11
2178.5178222656
 21
1399.1120605469
 31
0.
  0
CIRCLE
  8
SICHTBARE_KANTE
 10
393.51779174805
 20
614.16906738281
 30
0.
 40
45.
  0
TEXT
  8
2D-TEXT
 10
1327.9498291016
 20
297.74096679688
 30
0.
 40
66.66667175293
 50
6.5878649779866E-5
 51
360.
 41
.90999998397827
  1
386-2
  7
DIN-EN-ISO-3098
 72
5
 11
1522.949859619
 21
297.74119100778
 31
0.
  0
TEXT
  8
2D-TEXT
 10
1994.6168212891
 20
297.74096679688
 30
0.
 40
66.66667175293
 50
5.3800773778138E-5
 51
360.
 41
.90999998397827
  1
800
  7
DIN-EN-ISO-3098
 72
5
 11
2107.2835006713
 21
297.74107259096
 31
0.
  0
TEXT
  8
2D-TEXT
 10
1327.9498291016
 20
497.74096679688
 30
0.
 40
66.66667175293
 50
6.207795268069E-5
 51
360.
 41
.90999998397827
  1
Modell
  7
DIN-EN-ISO-3098
 72
5
 11
1535.9498748778
 21
497.74119215758
 31
0.
  0
TEXT
  8
2D-TEXT
 10
1661.2828369141
 20
497.74096679688
 30
0.
 40
66.66667175293
 50
5.3800874732263E-5
 51
360.
 41
.90999998397827
  1
Laenge
  7
DIN-EN-ISO-3098
 72
5
 11
1903.9495391845
 21
497.74119466149
 31
0.
  0
TEXT
  8
2D-TEXT
 10
1994.6158447266
 20
497.74096679688
 30
0.
 40
66.66667175293
 50
6.4729365662334E-5
 51
360.
 41
.90999998397827
  1
Breite
  7
DIN-EN-ISO-3098
 72
5
 11
2193.3858795165
 21
497.74119135544
 31
0.
  0
TEXT
  8
2D-TEXT
 10
2327.9497070313
 20
497.74096679688
 30
0.
 40
66.66667175293
 50
7.595404123934E-5
 51
360.
 41
.90999998397827
  1
Tiefe
  7
DIN-EN-ISO-3098
 72
5
 11
2494.7830657958
 21
497.7411879592
 31
0.
  0
TEXT
  8
2D-TEXT
 10
1661.2838134766
 20
297.74096679688
 30
0.
 40
66.66667175293
 50
5.3800874751291E-5
 51
360.
 41
.90999998397827
  1
800
  7
DIN-EN-ISO-3098
 72
5
 11
1773.9504928588
 21
297.74107259116
 31
0.
  0
TEXT
  8
2D-TEXT
 10
2327.9497070313
 20
297.74096679688
 30
0.
 40
66.66667175293
 50
8.0701007579324E-5
 51
360.
 41
.90999998397827
  1
25
  7
DIN-EN-ISO-3098
 72
5
 11
2397.2830429076
 21
297.74106445276
 31
0.
  0
TEXT
  8
2D-TEXT
 10
1327.9498291016
 20
157.74096679688
 30
0.
 40
66.66667175293
 50
5.9778752609177E-5
 51
360.
 41
.90999998397827
  1
mit Wannentraeger
  7
DIN-EN-ISO-3098
 72
5
 11
2012.6165161129
 21
157.74168113432
 31
0.
  0
TEXT
  8
2D-TEXT
 10
1617.6168212891
 20
664.40502929687
 30
0.
 40
100.00000762939
 50
5.2985734299022E-5
 51
360.
 41
.74666664530436
  1
SUPERPLAN
  7
DIN-EN-ISO-3098
 72
5
 11
2124.283477783
 21
664.4054978498
 31
0.
  0
ENDSEC
  0
EOF
