  0
SECTION
  2
HEADER
  9
$ACADVER
  1
AC1009
  9
$ANGBASE
 50
       0.000000
  9
$ANGDIR
 70
0
  9
$ATTDIA
 70
0
  9
$ATTMODE
 70
0
  9
$ATTREQ
 70
0
  9
$AUNITS
 70
0
  9
$AUPREC
 70
1
  9
$BLIPMODE
 70
1
  9
$CECOLOR
 62
256
  9
$CELTYPE
  6
BYLAYER
  9
$CHAMFERA
 40
       0.000000
  9
$CHAMFERB
 40
       0.000000
  9
$CLAYER
  8
0
  9
$COORDS
 70
1
  9
$DIMALT
 70
0
  9
$DIMALTD
 70
2
  9
$DIMALTF
 40
      25.400000
  9
$DIMAPOST
  1

  9
$DIMASO
 70
0
  9
$DIMASZ
 40
       3.500000
  9
$DIMBLK
  1

  9
$DIMBLK1
  1

  9
$DIMBLK2
  1

  9
$DIMCEN
 40
       1.500000
  9
$DIMCLRD
 70
0
  9
$DIMCLRE
 70
0
  9
$DIMCLRT
 70
0
  9
$DIMDLE
 40
       0.000000
  9
$DIMDLI
 40
       7.000000
  9
$DIMEXE
 40
       1.800000
  9
$DIMEXO
 40
       0.100000
  9
$DIMGAP
 40
       0.090000
  9
$DIMLFAC
 40
       1.000000
  9
$DIMLIM
 70
0
  9
$DIMPOST
  1

  9
$DIMRND
 40
       0.000000
  9
$DIMSAH
 70
0
  9
$DIMSCALE
 40
       1.000000
  9
$DIMSE1
 70
0
  9
$DIMSE2
 70
0
  9
$DIMSHO
 70
1
  9
$DIMSOXD
 70
0
  9
$DIMSTYLE
  2
*UNNAMED
  9
$DIMTAD
 70
1
  9
$DIMTFAC
 40
       1.000000
  9
$DIMTIH
 70
0
  9
$DIMTIX
 70
0
  9
$DIMTM
 40
       0.000000
  9
$DIMTOFL
 70
0
  9
$DIMTOH
 70
0
  9
$DIMTOL
 70
0
  9
$DIMTP
 40
       0.000000
  9
$DIMTSZ
 40
       0.000000
  9
$DIMTVP
 40
       0.000000
  9
$DIMTXT
 40
       3.500000
  9
$DIMZIN
 70
0
  9
$DRAGMODE
 70
2
  9
$DWGCODEPAGE
  3
iso8859-1
  9
$ELEVATION
 40
       0.000000
  9
$EXTMAX
 10
2455.5079593658
 20
1307.036822319
 30
0.
  9
$EXTMIN
 10
-14.228368759155
 20
-14.228314399719
 30
0.
  9
$FILLETRAD
 40
       0.000000
  9
$FILLMODE
 70
1
  9
$HANDLING
 70
0
  9
$HANDSEED
  5
0
  9
$INSBASE
 10
       0.000000
 20
       0.000000
 30
       0.000000
  9
$LIMCHECK
 70
0
  9
$LIMMAX
 10
2455.5079593658
 20
1307.036822319
  9
$LIMMIN
 10
-14.228368759155
 20
-14.228314399719
  9
$LTSCALE
 40
       1.000000
  9
$LUNITS
 70
2
  9
$LUPREC
 70
2
  9
$MAXACTVP
 70
16
  9
$MENU
  1
ACAD
  9
$MIRRTEXT
 70
0
  9
$ORTHOMODE
 70
0
  9
$OSMODE
 70
0
  9
$PDMODE
 70
0
  9
$PDSIZE
 40
       0.000000
  9
$PELEVATION
 40
       0.000000
  9
$PEXTMAX
 10
2455.5079593658
 20
1307.036822319
 30
0.
  9
$PEXTMIN
 10
-14.228368759155
 20
-14.228314399719
 30
0.
  9
$PINSBASE
 10
       0.000000
 20
       0.000000
 30
       0.000000
  9
$PLIMCHECK
 70
0
  9
$PLIMMAX
 10
2455.5079593658
 20
1307.036822319
  9
$PLIMMIN
 10
-14.228368759155
 20
-14.228314399719
  9
$PLINEGEN
 70
0
  9
$PLINEWID
 40
       0.000000
  9
$PSLTSCALE
 70
1
  9
$PUCSNAME
  2

  9
$PUCSORG
 10
       0.000000
 20
       0.000000
 30
       0.000000
  9
$PUCSXDIR
 10
       1.000000
 20
       0.000000
 30
       0.000000
  9
$PUCSYDIR
 10
       0.000000
 20
       1.000000
 30
       0.000000
  9
$QTEXTMODE
 70
0
  9
$REGENMODE
 70
1
  9
$SHADEDGE
 70
3
  9
$SHADEDIF
 70
70
  9
$SKETCHINC
 40
       1.000000
  9
$SKPOLY
 70
0
  9
$SPLFRAME
 70
0
  9
$SPLINESEGS
 70
8
  9
$SPLINETYPE
 70
6
  9
$SURFTAB1
 70
6
  9
$SURFTAB2
 70
6
  9
$SURFTYPE
 70
6
  9
$SURFU
 70
6
  9
$SURFV
 70
6
  9
$TDCREATE
 40
2457319.6486111
  9
$TDINDWG
 40
       0.000000
  9
$TDUPDATE
 40
2457319.6486111
  9
$TDUSRTIMER
 40
       0.000000
  9
$TEXTSIZE
 40
       3.500000
  9
$TEXTSTYLE
  7
STANDARD
  9
$THICKNESS
 40
       0.000000
  9
$TILEMODE
 70
1
  9
$TRACEWID
 40
       1.000000
  9
$TREEDEPTH
 70
-3020
  9
$UCSNAME
  2

  9
$UCSORG
 10
       0.000000
 20
       0.000000
 30
       0.000000
  9
$UCSXDIR
 10
       1.000000
 20
       0.000000
 30
       0.000000
  9
$UCSYDIR
 10
       0.000000
 20
       1.000000
 30
       0.000000
  9
$UNITMODE
 70
0
  9
$USERI1
 70
0
  9
$USERI2
 70
0
  9
$USERI3
 70
0
  9
$USERI4
 70
0
  9
$USERI5
 70
0
  9
$USERR1
 40
       0.000000
  9
$USERR2
 40
       0.000000
  9
$USERR3
 40
       0.000000
  9
$USERR4
 40
       0.000000
  9
$USERR5
 40
       0.000000
  9
$USRTIMER
 70
0
  9
$VISRETAIN
 70
0
  9
$WORLDVIEW
 70
1
  0
ENDSEC
  0
SECTION
  2
TABLES
  0
TABLE
  2
LTYPE
 70
167
  0
LTYPE
  2
AUSGEZOGEN
 70
0
  3
________________________________
 72
65
 73
2
 40
16.
 49
16.
 49
0.
  0
LTYPE
  2
VERDECKTE_KANTE
 70
0
  3
__________________________
 72
65
 73
2
 40
5.
 49
4.063
 49
-0.938
  0
LTYPE
  2
HILFSLINIE
 70
0
  3
________________________________
 72
65
 73
2
 40
16.
 49
16.
 49
0.
  0
LTYPE
  2
BRUCHLINIE
 70
0
  3
________________________________
 72
65
 73
2
 40
16.
 49
16.
 49
0.
  0
LTYPE
  2
MITTELLINIE
 70
0
  3
_______________________   ___
 72
65
 73
4
 40
13.
 49
9.34
 49
-1.22
 49
1.22
 49
-1.22
  0
LTYPE
  2
SCHNITTLINIE
 70
0
  3
_______________________   ___
 72
65
 73
4
 40
13.
 49
9.34
 49
-1.22
 49
1.22
 49
-1.22
  0
LTYPE
  2
SCHWERLINIE
 70
0
  3
______________________  __  __
 72
65
 73
6
 40
15.
 49
10.31
 49
-0.94
 49
0.94
 49
-0.94
 49
0.94
 49
-0.94
  0
LTYPE
  2
ENTWURFSLINIE
 70
0
  3
__      __      __      __
 72
65
 73
8
 40
16.
 49
1.
 49
-3.
 49
1.
 49
-3.
 49
1.
 49
-3.
 49
1.
 49
-3.
  0
LTYPE
  2
SONDERLINIE1
 70
0
  3
________________________________
 72
65
 73
2
 40
16.
 49
16.
 49
0.
  0
LTYPE
  2
SONDERLINIE2
 70
0
  3
______________________  __  __
 72
65
 73
6
 40
15.
 49
10.31
 49
-0.94
 49
0.94
 49
-0.94
 49
0.94
 49
-0.94
  0
LTYPE
  2
SONDERLINIE3
 70
0
  3
__________________  __  __  __
 72
65
 73
8
 40
16.
 49
9.
 49
-1.
 49
1.
 49
-1.
 49
1.
 49
-1.
 49
1.
 49
-1.
  0
LTYPE
  2
SONDERLINIE4
 70
0
  3
__________________  __  __  __
 72
65
 73
8
 40
16.
 49
9.
 49
-1.
 49
1.
 49
-1.
 49
1.
 49
-1.
 49
1.
 49
-1.
  0
LTYPE
  2
SONDERLINIE5
 70
0
  3
______________  __  __  __  __
 72
65
 73
10
 40
16.
 49
7.
 49
-1.
 49
1.
 49
-1.
 49
1.
 49
-1.
 49
1.
 49
-1.
 49
1.
 49
-1.
  0
LTYPE
  2
SONDERLINIE6
 70
0
  3
______________  __  __  __  __
 72
65
 73
10
 40
16.
 49
7.
 49
-1.
 49
1.
 49
-1.
 49
1.
 49
-1.
 49
1.
 49
-1.
 49
1.
 49
-1.
  0
LTYPE
  2
SONDERLINIE7
 70
0
  3
__________  __  __  __  __  __
 72
65
 73
12
 40
16.
 49
5.
 49
-1.
 49
1.
 49
-1.
 49
1.
 49
-1.
 49
1.
 49
-1.
 49
1.
 49
-1.
 49
1.
 49
-1.
  0
LTYPE
  2
SONDERLINIE8
 70
0
  3
__________  __  __  __  __  __
 72
65
 73
12
 40
16.
 49
5.
 49
-1.
 49
1.
 49
-1.
 49
1.
 49
-1.
 49
1.
 49
-1.
 49
1.
 49
-1.
 49
1.
 49
-1.
  0
LTYPE
  2
HEIZUNG-VORLAUF
 70
0
  3
 
 72
65
 73
2
 40
16.
 49
16.
 49
0.
  0
LTYPE
  2
HEIZUNG-RUECKLAUF
 70
0
  3
 
 72
65
 73
2
 40
5.
 49
4.063
 49
-0.938
  0
LTYPE
  2
TRINKWASSER-KALT
 70
0
  3
 
 72
65
 73
2
 40
16.
 49
16.
 49
0.
  0
LTYPE
  2
TRINKWASSER-WARM
 70
0
  3
 
 72
65
 73
2
 40
5.
 49
4.063
 49
-0.938
  0
LTYPE
  2
TRINKWASSER-ZIRKULATION
 70
0
  3
 
 72
65
 73
4
 40
13.
 49
9.34
 49
-1.22
 49
1.22
 49
-1.22
  0
LTYPE
  2
SANITAER-SCHMUTZWASSER
 70
0
  3
 
 72
65
 73
2
 40
16.
 49
16.
 49
0.
  0
LTYPE
  2
SANITAER-REGENWASSER
 70
0
  3
 
 72
65
 73
2
 40
5.
 49
4.063
 49
-0.938
  0
LTYPE
  2
SANITAER-MISCHWASSER
 70
0
  3
 
 72
65
 73
4
 40
13.
 49
9.34
 49
-1.22
 49
1.22
 49
-1.22
  0
LTYPE
  2
SANITAER-ENTLUEFTUNG
 70
0
  3
 
 72
65
 73
2
 40
5.
 49
4.063
 49
-0.938
  0
LTYPE
  2
SPRINKLER
 70
0
  3
 
 72
65
 73
2
 40
16.
 49
16.
 49
0.
  0
LTYPE
  2
WERKWASSER
 70
0
  3
 
 72
65
 73
2
 40
16.
 49
16.
 49
0.
  0
LTYPE
  2
KUEHLWASSER-VL
 70
0
  3
 
 72
65
 73
2
 40
16.
 49
16.
 49
0.
  0
LTYPE
  2
KUEHLWASSER-RL-D
 70
0
  3
 
 72
65
 73
2
 40
5.
 49
4.063
 49
-0.938
  0
LTYPE
  2
KUEHLWASSER-RL-DI
 70
0
  3
 
 72
65
 73
2
 40
5.
 49
4.063
 49
-0.938
  0
LTYPE
  2
KALTWASSER-KAELTEANL--VL
 70
0
  3
 
 72
65
 73
2
 40
16.
 49
16.
 49
0.
  0
LTYPE
  2
KALTWASSER-KAELTEANL--RL
 70
0
  3
 
 72
65
 73
2
 40
5.
 49
4.063
 49
-0.938
  0
LTYPE
  2
SCHLEIFEMULSION
 70
0
  3
 
 72
65
 73
2
 40
16.
 49
16.
 49
0.
  0
LTYPE
  2
BOHREMULSION
 70
0
  3
 
 72
65
 73
2
 40
16.
 49
16.
 49
0.
  0
LTYPE
  2
SCHNEIDEMULSION
 70
0
  3
 
 72
65
 73
2
 40
16.
 49
16.
 49
0.
  0
LTYPE
  2
DRUCKLUFT-HAUPTNETZ
 70
0
  3
 
 72
65
 73
2
 40
16.
 49
16.
 49
0.
  0
LTYPE
  2
DRUCKLUFT-HOCHDRUCKNETZ
 70
0
  3
 
 72
65
 73
2
 40
16.
 49
16.
 49
0.
  0
LTYPE
  2
DRUCKLUFT-NIEDERDRUCKNETZ
 70
0
  3
 
 72
65
 73
2
 40
16.
 49
16.
 49
0.
  0
LTYPE
  2
MISCHWASSER-DRUCK
 70
0
  3
 
 72
65
 73
2
 40
16.
 49
16.
 49
0.
  0
LTYPE
  2
MISCHWASSER-KANAL
 70
0
  3
 
 72
65
 73
2
 40
16.
 49
16.
 49
0.
  0
LTYPE
  2
OELHALTIGES-ABWASSER-DRUCK
 70
0
  3
 
 72
65
 73
2
 40
16.
 49
16.
 49
0.
  0
LTYPE
  2
OELHALTIGES-ABWASSER-KANAL
 70
0
  3
 
 72
65
 73
2
 40
16.
 49
16.
 49
0.
  0
LTYPE
  2
REGENWASSER-DRUCK
 70
0
  3
 
 72
65
 73
2
 40
16.
 49
16.
 49
0.
  0
LTYPE
  2
REGENWASSER-KANAL
 70
0
  3
 
 72
65
 73
2
 40
16.
 49
16.
 49
0.
  0
LTYPE
  2
SCHMUTZWASSER-DRUCK
 70
0
  3
 
 72
65
 73
2
 40
16.
 49
16.
 49
0.
  0
LTYPE
  2
SCHMUTZWASSER-KANAL
 70
0
  3
 
 72
65
 73
2
 40
16.
 49
16.
 49
0.
  0
LTYPE
  2
ALTEMULSION
 70
0
  3
 
 72
65
 73
2
 40
16.
 49
16.
 49
0.
  0
LTYPE
  2
ALTWASCHWASSER
 70
0
  3
 
 72
65
 73
2
 40
16.
 49
16.
 49
0.
  0
LTYPE
  2
CHROMHALTIGES-SPUELWASSER
 70
0
  3
 
 72
65
 73
2
 40
16.
 49
16.
 49
0.
  0
LTYPE
  2
CYANIDHALTIGES-SPUELWASSER
 70
0
  3
 
 72
65
 73
2
 40
16.
 49
16.
 49
0.
  0
LTYPE
  2
GEKLAERTES-ABWASSER
 70
0
  3
 
 72
65
 73
2
 40
16.
 49
16.
 49
0.
  0
LTYPE
  2
NITRITHALTIGES-SPUELWASSER
 70
0
  3
 
 72
65
 73
2
 40
16.
 49
16.
 49
0.
  0
LTYPE
  2
SAURES-ALKALISCHES-ELUAT
 70
0
  3
 
 72
65
 73
2
 40
16.
 49
16.
 49
0.
  0
LTYPE
  2
SAURES-ALKALISCHES-SPUELWASSER
 70
0
  3
 
 72
65
 73
2
 40
16.
 49
16.
 49
0.
  0
LTYPE
  2
AMIDASULFONSAEURE
 70
0
  3
 
 72
65
 73
2
 40
16.
 49
16.
 49
0.
  0
LTYPE
  2
CHROMHALTIGES-KONZENTRAT
 70
0
  3
 
 72
65
 73
2
 40
16.
 49
16.
 49
0.
  0
LTYPE
  2
CYANIDHALTIGES-KONZENTRAT
 70
0
  3
 
 72
65
 73
2
 40
16.
 49
16.
 49
0.
  0
LTYPE
  2
ELEKTROLYT
 70
0
  3
 
 72
65
 73
2
 40
16.
 49
16.
 49
0.
  0
LTYPE
  2
NATRIUMBISULFIT
 70
0
  3
 
 72
65
 73
2
 40
16.
 49
16.
 49
0.
  0
LTYPE
  2
NATRIUMHYPOCHLORIT
 70
0
  3
 
 72
65
 73
2
 40
16.
 49
16.
 49
0.
  0
LTYPE
  2
NATRONLAUGE
 70
0
  3
 
 72
65
 73
2
 40
16.
 49
16.
 49
0.
  0
LTYPE
  2
NITRITHALTIGES-KONZENTRAT
 70
0
  3
 
 72
65
 73
2
 40
16.
 49
16.
 49
0.
  0
LTYPE
  2
PHOSPHORSAEURE
 70
0
  3
 
 72
65
 73
2
 40
16.
 49
16.
 49
0.
  0
LTYPE
  2
SALPETERSAEURE
 70
0
  3
 
 72
65
 73
2
 40
16.
 49
16.
 49
0.
  0
LTYPE
  2
SALZSAEURE
 70
0
  3
 
 72
65
 73
2
 40
16.
 49
16.
 49
0.
  0
LTYPE
  2
SCHWEFELSAEURE
 70
0
  3
 
 72
65
 73
2
 40
16.
 49
16.
 49
0.
  0
LTYPE
  2
BETRIEBSWAERME-RL
 70
0
  3
 
 72
65
 73
2
 40
5.
 49
4.063
 49
-0.938
  0
LTYPE
  2
BETRIEBSWAERME-VL
 70
0
  3
 
 72
65
 73
2
 40
16.
 49
16.
 49
0.
  0
LTYPE
  2
WARMWASSER-VL
 70
0
  3
 
 72
65
 73
2
 40
16.
 49
16.
 49
0.
  0
LTYPE
  2
WARMWASSER-ZIRKULATION
 70
0
  3
 
 72
65
 73
4
 40
13.
 49
9.34
 49
-1.22
 49
1.22
 49
-1.22
  0
LTYPE
  2
ROHWASSER
 70
0
  3
 
 72
65
 73
2
 40
16.
 49
16.
 49
0.
  0
LTYPE
  2
ARGON
 70
0
  3
 
 72
65
 73
2
 40
16.
 49
16.
 49
0.
  0
LTYPE
  2
CORGON
 70
0
  3
 
 72
65
 73
2
 40
16.
 49
16.
 49
0.
  0
LTYPE
  2
KOHLENDIOXID
 70
0
  3
 
 72
65
 73
2
 40
16.
 49
16.
 49
0.
  0
LTYPE
  2
STICKSTOFF
 70
0
  3
 
 72
65
 73
2
 40
16.
 49
16.
 49
0.
  0
LTYPE
  2
AZETYLEN
 70
0
  3
 
 72
65
 73
2
 40
16.
 49
16.
 49
0.
  0
LTYPE
  2
ERDGAS
 70
0
  3
 
 72
65
 73
2
 40
16.
 49
16.
 49
0.
  0
LTYPE
  2
SAUERSTOFF--TECHNISCH-REIN
 70
0
  3
 
 72
65
 73
2
 40
16.
 49
16.
 49
0.
  0
LTYPE
  2
TRAEGERGAS
 70
0
  3
 
 72
65
 73
2
 40
16.
 49
16.
 49
0.
  0
LTYPE
  2
WASSERSTOFF
 70
0
  3
 
 72
65
 73
2
 40
16.
 49
16.
 49
0.
  0
LTYPE
  2
KRAFTSTOFF-GK-A-I-D
 70
0
  3
 
 72
65
 73
2
 40
16.
 49
16.
 49
0.
  0
LTYPE
  2
KRAFTSTOFF-SONDER-D
 70
0
  3
 
 72
65
 73
2
 40
16.
 49
16.
 49
0.
  0
LTYPE
  2
ACHSOEL
 70
0
  3
 
 72
65
 73
2
 40
16.
 49
16.
 49
0.
  0
LTYPE
  2
ALTOEL
 70
0
  3
 
 72
65
 73
2
 40
16.
 49
16.
 49
0.
  0
LTYPE
  2
BOHROEL
 70
0
  3
 
 72
65
 73
2
 40
16.
 49
16.
 49
0.
  0
LTYPE
  2
ERODIEROEL
 70
0
  3
 
 72
65
 73
2
 40
16.
 49
16.
 49
0.
  0
LTYPE
  2
FETT
 70
0
  3
 
 72
65
 73
2
 40
16.
 49
16.
 49
0.
  0
LTYPE
  2
GETRIEBEOEL
 70
0
  3
 
 72
65
 73
2
 40
16.
 49
16.
 49
0.
  0
LTYPE
  2
HAERTEOEL
 70
0
  3
 
 72
65
 73
2
 40
16.
 49
16.
 49
0.
  0
LTYPE
  2
HONOEL
 70
0
  3
 
 72
65
 73
2
 40
16.
 49
16.
 49
0.
  0
LTYPE
  2
HYDRAULIKOEL
 70
0
  3
 
 72
65
 73
2
 40
16.
 49
16.
 49
0.
  0
LTYPE
  2
MOTOROEL
 70
0
  3
 
 72
65
 73
2
 40
16.
 49
16.
 49
0.
  0
LTYPE
  2
NORMALSPUELOEL
 70
0
  3
 
 72
65
 73
2
 40
16.
 49
16.
 49
0.
  0
LTYPE
  2
RAEUMOEL
 70
0
  3
 
 72
65
 73
2
 40
16.
 49
16.
 49
0.
  0
LTYPE
  2
SCHLEIFOEL
 70
0
  3
 
 72
65
 73
2
 40
16.
 49
16.
 49
0.
  0
LTYPE
  2
SCHNEIDOEL
 70
0
  3
 
 72
65
 73
2
 40
16.
 49
16.
 49
0.
  0
LTYPE
  2
SONDERSPUELOEL
 70
0
  3
 
 72
65
 73
2
 40
16.
 49
16.
 49
0.
  0
LTYPE
  2
ZIEHOEL
 70
0
  3
 
 72
65
 73
2
 40
16.
 49
16.
 49
0.
  0
LTYPE
  2
MONTAGEOEL
 70
0
  3
 
 72
65
 73
2
 40
16.
 49
16.
 49
0.
  0
LTYPE
  2
MONTAGE-GLEITOEL
 70
0
  3
 
 72
65
 73
2
 40
16.
 49
16.
 49
0.
  0
LTYPE
  2
SPUELOEL
 70
0
  3
 
 72
65
 73
2
 40
16.
 49
16.
 49
0.
  0
LTYPE
  2
TIEFBOHROEL
 70
0
  3
 
 72
65
 73
2
 40
16.
 49
16.
 49
0.
  0
LTYPE
  2
AMIN
 70
0
  3
 
 72
65
 73
2
 40
16.
 49
16.
 49
0.
  0
LTYPE
  2
HAERTER
 70
0
  3
 
 72
65
 73
2
 40
16.
 49
16.
 49
0.
  0
LTYPE
  2
HARZ
 70
0
  3
 
 72
65
 73
2
 40
16.
 49
16.
 49
0.
  0
LTYPE
  2
LOESEMITTEL
 70
0
  3
 
 72
65
 73
2
 40
16.
 49
16.
 49
0.
  0
LTYPE
  2
LACK
 70
0
  3
 
 72
65
 73
2
 40
16.
 49
16.
 49
0.
  0
LTYPE
  2
WASCHWASSER
 70
0
  3
 
 72
65
 73
2
 40
16.
 49
16.
 49
0.
  0
LTYPE
  2
GLEITSCHLEIFWASSER
 70
0
  3
 
 72
65
 73
2
 40
16.
 49
16.
 49
0.
  0
LTYPE
  2
VERDUENNUNG
 70
0
  3
 
 72
65
 73
2
 40
16.
 49
16.
 49
0.
  0
LTYPE
  2
KUEHLDECKEN-VORLAUF
 70
0
  3
 
 72
65
 73
2
 40
16.
 49
16.
 49
0.
  0
LTYPE
  2
KUEHLDECKEN-RUECKLAUF
 70
0
  3
 
 72
65
 73
2
 40
5.
 49
4.063
 49
-0.938
  0
LTYPE
  2
KONDENSAT
 70
0
  3
 
 72
65
 73
2
 40
16.
 49
16.
 49
0.
  0
LTYPE
  2
KONDENSAT-REINDAMPF
 70
0
  3
 
 72
65
 73
2
 40
16.
 49
16.
 49
0.
  0
LTYPE
  2
KONDENSAT-HOCHDRUCK
 70
0
  3
 
 72
65
 73
2
 40
16.
 49
16.
 49
0.
  0
LTYPE
  2
DAMPF
 70
0
  3
 
 72
65
 73
2
 40
16.
 49
16.
 49
0.
  0
LTYPE
  2
REINDAMPF
 70
0
  3
 
 72
65
 73
2
 40
16.
 49
16.
 49
0.
  0
LTYPE
  2
DAMPF-HOCHDRUCK
 70
0
  3
 
 72
65
 73
2
 40
16.
 49
16.
 49
0.
  0
LTYPE
  2
KLIMA-ZENTRALE
 70
0
  3
 
 72
65
 73
2
 40
16.
 49
16.
 49
0.
  0
LTYPE
  2
KLIMA-AUSSENLUFT
 70
0
  3
 
 72
65
 73
4
 40
13.
 49
9.34
 49
-1.22
 49
1.22
 49
-1.22
  0
LTYPE
  2
KLIMA-ZULUFT-I
 70
0
  3
 
 72
65
 73
2
 40
16.
 49
16.
 49
0.
  0
LTYPE
  2
KLIMA-ZULUFT-II
 70
0
  3
 
 72
65
 73
2
 40
16.
 49
16.
 49
0.
  0
LTYPE
  2
KLIMA-ZULUFT-III
 70
0
  3
 
 72
65
 73
2
 40
16.
 49
16.
 49
0.
  0
LTYPE
  2
KLIMA-ZULUFT-IV
 70
0
  3
 
 72
65
 73
2
 40
16.
 49
16.
 49
0.
  0
LTYPE
  2
KLIMA-UMLUFT
 70
0
  3
 
 72
65
 73
2
 40
5.
 49
4.063
 49
-0.938
  0
LTYPE
  2
KLIMA-MISCHLUFT
 70
0
  3
 
 72
65
 73
6
 40
11.
 49
3.78
 49
-1.03
 49
3.78
 49
-1.03
 49
0.34
 49
-1.03
  0
LTYPE
  2
KLIMA-ABLUFT
 70
0
  3
 
 72
65
 73
2
 40
5.
 49
4.063
 49
-0.938
  0
LTYPE
  2
KLIMA-FORTLUFT
 70
0
  3
 
 72
65
 73
2
 40
5.
 49
4.063
 49
-0.938
  0
LTYPE
  2
ENTRAUCHUNG
 70
0
  3
 
 72
65
 73
2
 40
5.
 49
4.063
 49
-0.938
  0
LTYPE
  2
ELEKTRO-ZENTRALE
 70
0
  3
 
 72
65
 73
2
 40
16.
 49
16.
 49
0.
  0
LTYPE
  2
STROMSCHIENEN
 70
0
  3
 
 72
65
 73
2
 40
16.
 49
16.
 49
0.
  0
LTYPE
  2
ELEKTRO-LEITUNGSFUEHRUNG
 70
0
  3
 
 72
65
 73
2
 40
16.
 49
16.
 49
0.
  0
LTYPE
  2
ELEKTRO-KABELTRAEGER
 70
0
  3
 
 72
65
 73
2
 40
16.
 49
16.
 49
0.
  0
LTYPE
  2
INNENWAND
 70
0
  3
 
 72
65
 73
2
 40
16.
 49
16.
 49
0.
  0
LTYPE
  2
AUSSENWAND
 70
0
  3
 
 72
65
 73
2
 40
16.
 49
16.
 49
0.
  0
LTYPE
  2
ERDBERUEHRENDE-WAND
 70
0
  3
 
 72
65
 73
2
 40
16.
 49
16.
 49
0.
  0
LTYPE
  2
REINWASSER
 70
0
  3
 
 72
65
 73
2
 40
16.
 49
16.
 49
0.
  0
LTYPE
  2
MESSWASSER
 70
0
  3
 
 72
65
 73
2
 40
16.
 49
16.
 49
0.
  0
LTYPE
  2
SCHWALLWASSER
 70
0
  3
 
 72
65
 73
2
 40
16.
 49
16.
 49
0.
  0
LTYPE
  2
SCHLAMMWASSER
 70
0
  3
 
 72
65
 73
2
 40
16.
 49
16.
 49
0.
  0
LTYPE
  2
ERSTFILTRAT
 70
0
  3
 
 72
65
 73
2
 40
16.
 49
16.
 49
0.
  0
LTYPE
  2
FILTRAT
 70
0
  3
 
 72
65
 73
2
 40
16.
 49
16.
 49
0.
  0
LTYPE
  2
SOLE-FILTRAT
 70
0
  3
 
 72
65
 73
2
 40
16.
 49
16.
 49
0.
  0
LTYPE
  2
SOLE-REINWASSER
 70
0
  3
 
 72
65
 73
2
 40
16.
 49
16.
 49
0.
  0
LTYPE
  2
SOLE-ROHWASSER
 70
0
  3
 
 72
65
 73
2
 40
16.
 49
16.
 49
0.
  0
LTYPE
  2
SPUELWASSER
 70
0
  3
 
 72
65
 73
2
 40
16.
 49
16.
 49
0.
  0
LTYPE
  2
SPUELLUFT
 70
0
  3
 
 72
65
 73
2
 40
16.
 49
16.
 49
0.
  0
LTYPE
  2
CHLORLOESUNG
 70
0
  3
 
 72
65
 73
2
 40
16.
 49
16.
 49
0.
  0
LTYPE
  2
PH-LOESUNG
 70
0
  3
 
 72
65
 73
2
 40
16.
 49
16.
 49
0.
  0
LTYPE
  2
FLOCKUNGSMITTEL
 70
0
  3
 
 72
65
 73
2
 40
16.
 49
16.
 49
0.
  0
LTYPE
  2
SEEWASSER--KALT
 70
0
  3
 
 72
65
 73
2
 40
16.
 49
16.
 49
0.
  0
LTYPE
  2
SEEWASSER--WARM
 70
0
  3
 
 72
65
 73
2
 40
5.
 49
4.063
 49
-0.938
  0
LTYPE
  2
SEEWASSER--ZIRKULATION
 70
0
  3
 
 72
65
 73
4
 40
13.
 49
9.34
 49
-1.22
 49
1.22
 49
-1.22
  0
LTYPE
  2
LABORWASSER--KALT
 70
0
  3
 
 72
65
 73
2
 40
16.
 49
16.
 49
0.
  0
LTYPE
  2
LABORWASSER--WARM
 70
0
  3
 
 72
65
 73
2
 40
5.
 49
4.063
 49
-0.938
  0
LTYPE
  2
LABORWASSER--ZIRKULATION
 70
0
  3
 
 72
65
 73
4
 40
13.
 49
9.34
 49
-1.22
 49
1.22
 49
-1.22
  0
LTYPE
  2
WASSER-VOLL-ENTHAERTET-VL
 70
0
  3
 
 72
65
 73
2
 40
16.
 49
16.
 49
0.
  0
LTYPE
  2
WASSER-VOLL-ENTHAERTET-RL
 70
0
  3
 
 72
65
 73
2
 40
16.
 49
16.
 49
0.
  0
LTYPE
  2
PROZESSKUEHLWASSER-VL
 70
0
  3
 
 72
65
 73
2
 40
16.
 49
16.
 49
0.
  0
LTYPE
  2
PROZESSKUEHLWASSER-RL
 70
0
  3
 
 72
65
 73
2
 40
16.
 49
16.
 49
0.
  0
LTYPE
  2
EINBAURAUM
 70
0
  3
 
 72
65
 73
2
 40
16.
 49
16.
 49
0.
  0
LTYPE
  2
INNENRAUM
 70
0
  3
 
 72
65
 73
2
 40
16.
 49
16.
 49
0.
  0
LTYPE
  2
BODENPLATTE
 70
0
  3
 
 72
65
 73
2
 40
16.
 49
16.
 49
0.
  0
LTYPE
  2
DECKE
 70
0
  3
 
 72
65
 73
2
 40
16.
 49
16.
 49
0.
  0
LTYPE
  2
DACH
 70
0
  3
 
 72
65
 73
2
 40
16.
 49
16.
 49
0.
  0
LTYPE
  2
KAELTEMITTEL-VORLAUF
 70
0
  3
 
 72
65
 73
2
 40
16.
 49
16.
 49
0.
  0
LTYPE
  2
KAELTEMITTEL-RUECKLAUF
 70
0
  3
 
 72
65
 73
2
 40
16.
 49
16.
 49
0.
  0
ENDTAB
  0
TABLE
  2
LAYER
 70
25
  0
LAYER
  2
0
 62
7
  6
AUSGEZOGEN
 70
64
  0
LAYER
  2
SICHTBARE_KANTE
 62
7
  6
AUSGEZOGEN
 70
64
  0
LAYER
  2
VERDECKTE_KANTE
 62
8
  6
VERDECKTE_KANTE
 70
64
  0
LAYER
  2
HILFSLINIE
 62
8
  6
HILFSLINIE
 70
64
  0
LAYER
  2
BRUCHLINIE
 62
8
  6
BRUCHLINIE
 70
64
  0
LAYER
  2
MITTELLINIE
 62
8
  6
MITTELLINIE
 70
64
  0
LAYER
  2
SCHNITTLINIE
 62
7
  6
SCHNITTLINIE
 70
64
  0
LAYER
  2
SCHWERLINIE
 62
8
  6
SCHWERLINIE
 70
64
  0
LAYER
  2
ENTWURFSLINIE
 62
8
  6
ENTWURFSLINIE
 70
64
  0
LAYER
  2
SONDERLINIE_1
 62
8
  6
SONDERLINIE1
 70
64
  0
LAYER
  2
SONDERLINIE_2
 62
8
  6
SONDERLINIE2
 70
64
  0
LAYER
  2
SONDERLINIE_3
 62
8
  6
SONDERLINIE3
 70
64
  0
LAYER
  2
SONDERLINIE_4
 62
8
  6
SONDERLINIE4
 70
64
  0
LAYER
  2
SONDERLINIE_5
 62
8
  6
SONDERLINIE5
 70
64
  0
LAYER
  2
SONDERLINIE_6
 62
8
  6
SONDERLINIE6
 70
64
  0
LAYER
  2
SONDERLINIE_7
 62
8
  6
SONDERLINIE7
 70
64
  0
LAYER
  2
SONDERLINIE_8
 62
8
  6
SONDERLINIE8
 70
64
  0
LAYER
  2
2D-TEXT
 62
7
  6
AUSGEZOGEN
 70
64
  0
LAYER
  2
SCHRAFFUR
 62
8
  6
HILFSLINIE
 70
64
  0
LAYER
  2
SYMBOL
 62
7
  6
HILFSLINIE
 70
64
  0
LAYER
  2
BEMASSUNG
 62
8
  6
HILFSLINIE
 70
64
  0
LAYER
  2
OBERFLAECHENZEICHEN
 62
8
  6
HILFSLINIE
 70
64
  0
LAYER
  2
FORM-LAGE-TOLERANZEN
 62
8
  6
HILFSLINIE
 70
64
  0
LAYER
  2
SCHWEISSZEICHEN
 62
8
  6
HILFSLINIE
 70
64
  0
LAYER
  2
GRUNDEBENE
 62
7
  6
AUSGEZOGEN
 70
64
  0
ENDTAB
  0
TABLE
  2
STYLE
 70
23
  0
STYLE
  2
STANDARD
 70
0
 40
0
 41
       1.000000
 50
       0.000000
 71
0
 42
       3.500000
  3
isocp
  4

  0
STYLE
  2
DIN-EN-ISO-3098
 70
0
 40
0
 41
       1.000000
 50
       0.000000
 71
0
 42
       3.500000
  3
isocp
  4

  0
STYLE
  2
ROMAN
 70
0
 40
0
 41
       1.000000
 50
       0.000000
 71
0
 42
       3.500000
  3
romans.shx
  4

  0
STYLE
  2
SCRIPT
 70
0
 40
0
 41
       1.000000
 50
       0.000000
 71
0
 42
       3.500000
  3
scripts.shx
  4

  0
STYLE
  2
GRIECHISCH
 70
0
 40
0
 41
       1.000000
 50
       0.000000
 71
0
 42
       3.500000
  3
greeks.shx
  4

  0
STYLE
  2
KYRILLISCH
 70
0
 40
0
 41
       1.000000
 50
       0.000000
 71
0
 42
       3.500000
  3
cyrillic.shx
  4

  0
STYLE
  2
MATH--FORMELZEICHEN
 70
0
 40
0
 41
       1.000000
 50
       0.000000
 71
0
 42
       3.500000
  3
symath.shx
  4

  0
STYLE
  2
DOPPELLINIE
 70
0
 40
0
 41
       1.000000
 50
       0.000000
 71
0
 42
       3.500000
  3
swissko.ttf
  4

  0
STYLE
  2
SERIFENSCHRIFT
 70
0
 40
0
 41
       1.000000
 50
       0.000000
 71
0
 42
       3.500000
  3
romanc__.ttf
  4

  0
STYLE
  2
ARIAL
 70
0
 40
0
 41
       1.000000
 50
       0.000000
 71
0
 42
       3.500000
  3
arial.ttf
  4

  0
STYLE
  2
ARIAL-FETT
 70
0
 40
0
 41
       1.000000
 50
       0.000000
 71
0
 42
       3.500000
  3
arialbd.ttf
  4

  0
STYLE
  2
TIMES-NEW-ROMAN
 70
0
 40
0
 41
       1.000000
 50
       0.000000
 71
0
 42
       3.500000
  3
times.ttf
  4

  0
STYLE
  2
TIMES-NEW-ROMAN-FETT
 70
0
 40
0
 41
       1.000000
 50
       0.000000
 71
0
 42
       3.500000
  3
timesbd.ttf
  4

  0
STYLE
  2
ISO-3098-OSTEUROPA
 70
0
 40
0
 41
       1.000000
 50
       0.000000
 71
0
 42
       3.500000
  3
txt
  4

  0
STYLE
  2
ISO-3098-KYRILLISCH
 70
0
 40
0
 41
       1.000000
 50
       0.000000
 71
0
 42
       3.500000
  3
txt
  4

  0
STYLE
  2
ARIAL-OSTEUROPA
 70
0
 40
0
 41
       1.000000
 50
       0.000000
 71
0
 42
       3.500000
  3
arial.ttf
  4

  0
STYLE
  2
ARIAL-KYRILLISCH
 70
0
 40
0
 41
       1.000000
 50
       0.000000
 71
0
 42
       3.500000
  3
arial.ttf
  4

  0
STYLE
  2
ARIAL-FETT-OSTEUROPA
 70
0
 40
0
 41
       1.000000
 50
       0.000000
 71
0
 42
       3.500000
  3
arialbd.ttf
  4

  0
STYLE
  2
ARIAL-FETT-KYRILLISCH
 70
0
 40
0
 41
       1.000000
 50
       0.000000
 71
0
 42
       3.500000
  3
arialbd.ttf
  4

  0
STYLE
  2
TIMES-N-R-OSTEUROPA
 70
0
 40
0
 41
       1.000000
 50
       0.000000
 71
0
 42
       3.500000
  3
times.ttf
  4

  0
STYLE
  2
TIMES-N-R-KYRILLISCH
 70
0
 40
0
 41
       1.000000
 50
       0.000000
 71
0
 42
       3.500000
  3
times.ttf
  4

  0
STYLE
  2
TIMES-N-R-FETT-OSTEUROPA
 70
0
 40
0
 41
       1.000000
 50
       0.000000
 71
0
 42
       3.500000
  3
timesbd.ttf
  4

  0
STYLE
  2
TIMES-N-R-FETT-KYRILLISCH
 70
0
 40
0
 41
       1.000000
 50
       0.000000
 71
0
 42
       3.500000
  3
timesbd.ttf
  4

  0
ENDTAB
  0
TABLE
  2
VIEW
 70
0
  0
ENDTAB
  0
TABLE
  2
VPORT
 70
2
  0
VPORT
  2
*ACTIVE
 70
0
 10
       0.000000
 20
       0.000000
 11
       1.000000
 21
       1.000000
 12
1220.6397953033
 22
646.40425395966
 13
       0.000000
 23
       0.000000
 14
       1.000000
 24
       1.000000
 15
       0.000000
 25
       0.000000
 16
       0.000000
 26
       0.000000
 36
       1.000000
 17
       0.000000
 27
       0.000000
 37
       0.000000
 40
1321.2651367188
 41
1.8692208395496
 42
      50.000000
 43
       0.000000
 44
       0.000000
 50
       0.000000
 51
       0.000000
 71
0
 72
100
 73
1
 74
1
 75
0
 76
0
 77
0
 78
0
  0
ENDTAB
  0
TABLE
  2
APPID
 70
2
  0
APPID
  2
ACAD
 70
0
  0
APPID
  2
AC2KIMGDXF12EXP
 70
0
  0
ENDTAB
  0
TABLE
  2
DIMSTYLE
 70
1
  0
DIMSTYLE
  2
STDBEM
 70
0
  3

  4

  5

  6

  7

 40
       1.000000
 41
       3.500000
 42
       0.100000
 43
       7.000000
 44
       1.800000
 45
       0.000000
 46
       0.000000
 47
       0.000000
 48
       0.000000
140
       3.500000
141
       1.500000
142
       0.000000
143
      25.400000
144
       1.000000
145
       0.000000
146
       1.000000
147
       0.090000
 71
0
 72
0
 73
0
 74
0
 75
0
 76
0
 77
1
 78
0
170
0
171
2
172
0
173
0
174
0
175
0
176
0
177
0
178
0
  0
ENDTAB
  0
ENDSEC
  0
SECTION
  2
BLOCKS
  0
ENDSEC
  0
SECTION
  2
ENTITIES
  0
LINE
  8
HILFSLINIE
 10
1258.5212650299
 20
493.8951292038
 30
0.
 11
2445.5216312408
 21
493.8951292038
 31
0.
  0
LINE
  8
HILFSLINIE
 10
36.213045120239
 20
817.04536724091
 30
0.
 11
912.21261024475
 21
817.04536724091
 31
0.
  0
LINE
  8
HILFSLINIE
 10
918.21261024475
 20
811.04536724091
 30
0.
 11
918.21261024475
 21
135.04568767548
 31
0.
  0
LINE
  8
HILFSLINIE
 10
912.21261024475
 20
129.04568767548
 30
0.
 11
36.213045120239
 21
129.04568767548
 31
0.
  0
LINE
  8
HILFSLINIE
 10
30.213048934937
 20
135.04568767548
 30
0.
 11
30.213048934937
 21
811.04536724091
 31
0.
  0
ARC
  8
HILFSLINIE
 10
474.2128238678
 20
-8241.9480409622
 30
0.
 40
8968.2958984375
 50
88.059070576384
 51
91.940929618472
  0
ARC
  8
HILFSLINIE
 10
7089.2096195221
 20
473.0455198288
 30
0.
 40
6968.2963867188
 50
178.34479754306
 51
181.65520245694
  0
ARC
  8
HILFSLINIE
 10
172.10042762756
 20
273.16279888153
 30
0.
 40
48.299976348877
 50
181.65449360972
 51
268.0589097632
  0
ARC
  8
HILFSLINIE
 10
776.32522010803
 20
273.16279888153
 30
0.
 40
48.299980163574
 50
271.9410902368
 51
358.3455074355
  0
ARC
  8
HILFSLINIE
 10
-6140.7840328217
 20
473.0455198288
 30
0.
 40
6968.2963867188
 50
358.34479754306
 51
1.6552024569401
  0
ARC
  8
HILFSLINIE
 10
776.32522010803
 20
672.92824077606
 30
0.
 40
48.299976348877
 50
1.6544925644978
 51
88.058910989429
  0
ARC
  8
HILFSLINIE
 10
172.10042762756
 20
672.92824077606
 30
0.
 40
48.299980163574
 50
91.941089010571
 51
178.34550639028
  0
ARC
  8
HILFSLINIE
 10
-6140.7840328217
 20
473.0455198288
 30
0.
 40
7020.7963867187
 50
358.34480426569
 51
1.6552116812415
  0
ARC
  8
HILFSLINIE
 10
7089.2096195221
 20
473.0455198288
 30
0.
 40
7020.7963867187
 50
178.34478831336
 51
181.65519573971
  0
ARC
  8
HILFSLINIE
 10
172.10042762756
 20
672.92824077606
 30
0.
 40
100.80039978027
 50
91.941099697477
 51
178.34450135851
  0
ARC
  8
HILFSLINIE
 10
474.2128238678
 20
-8241.9480409622
 30
0.
 40
9020.796875
 50
88.059070743026
 51
91.940930626157
  0
ARC
  8
HILFSLINIE
 10
776.32522010803
 20
672.92824077606
 30
0.
 40
100.79982757568
 50
1.6555057827259
 51
88.059038995045
  0
ARC
  8
HILFSLINIE
 10
776.32522010803
 20
273.16279888153
 30
0.
 40
100.80039978027
 50
271.94096100495
 51
358.34561595178
  0
ARC
  8
HILFSLINIE
 10
172.10042762756
 20
273.16279888153
 30
0.
 40
100.79982757568
 50
181.65439694388
 51
268.05903899505
  0
ARC
  8
HILFSLINIE
 10
474.2128238678
 20
9188.0412168503
 30
0.
 40
9020.796875
 50
268.05907093018
 51
271.9409288761
  0
ARC
  8
HILFSLINIE
 10
474.2128238678
 20
9188.0412168503
 30
0.
 40
8968.2958984375
 50
268.05907038153
 51
271.94092942362
  0
ARC
  8
HILFSLINIE
 10
912.21261024475
 20
811.04536724091
 30
0.
 40
5.9999971389771
 50
0.
 51
90.
  0
ARC
  8
HILFSLINIE
 10
36.213045120239
 20
811.04536724091
 30
0.
 40
5.9999971389771
 50
90.
 51
180.
  0
ARC
  8
HILFSLINIE
 10
36.213045120239
 20
135.04568767548
 30
0.
 40
5.9999971389771
 50
180.
 51
270.
  0
ARC
  8
HILFSLINIE
 10
912.21261024475
 20
135.04568767548
 30
0.
 40
5.9999971389771
 50
270.
 51
0.
  0
CIRCLE
  8
HILFSLINIE
 10
224.2129611969
 20
623.04542827606
 30
0.
 40
67.999969482422
  0
LINE
  8
MITTELLINIE
 10
129.01305580139
 20
623.04542827606
 30
0.
 11
319.41286659241
 21
623.04542827606
 31
0.
  0
LINE
  8
MITTELLINIE
 10
224.2129611969
 20
718.24660015106
 30
0.
 11
224.2129611969
 21
527.84627056122
 31
0.
  0
LINE
  8
MITTELLINIE
 10
224.20588111877
 20
1142.6721982956
 30
0.
 11
224.20588111877
 21
1198.2189512253
 31
0.
  0
LINE
  8
MITTELLINIE
 10
474.2128238678
 20
123.04568767548
 30
0.
 11
474.2128238678
 21
823.04536724091
 31
0.
  0
LINE
  8
MITTELLINIE
 10
24.213052749634
 20
473.0455198288
 30
0.
 11
924.21261024475
 21
473.0455198288
 31
0.
  0
LINE
  8
MITTELLINIE
 10
1388.0354251862
 20
1142.6721982956
 30
0.
 11
1388.0354251862
 21
1198.2189512253
 31
0.
  0
LINE
  8
SICHTBARE_KANTE
 10
30.213048934937
 20
1191.4455137253
 30
0.
 11
918.21261024475
 21
1191.4455137253
 31
0.
  0
LINE
  8
SICHTBARE_KANTE
 10
30.965856552124
 20
1159.4925107956
 30
0.
 11
918.21261024475
 21
1159.4886045456
 31
0.
  0
LINE
  8
SICHTBARE_KANTE
 10
36.213045120239
 20
823.04536724091
 30
0.
 11
912.21261024475
 21
823.04536724091
 31
0.
  0
LINE
  8
SICHTBARE_KANTE
 10
912.21261024475
 20
123.04568767548
 30
0.
 11
36.213045120239
 21
123.04568767548
 31
0.
  0
LINE
  8
SICHTBARE_KANTE
 10
924.21261024475
 20
811.04536724091
 30
0.
 11
924.21261024475
 21
135.04568767548
 31
0.
  0
LINE
  8
SICHTBARE_KANTE
 10
24.213052749634
 20
135.04568767548
 30
0.
 11
24.213052749634
 21
811.04536724091
 31
0.
  0
LINE
  8
SICHTBARE_KANTE
 10
924.21261024475
 20
1165.4886045456
 30
0.
 11
924.21261024475
 21
1185.4456357956
 31
0.
  0
LINE
  8
SICHTBARE_KANTE
 10
24.213052749634
 20
1165.4456357956
 30
0.
 11
24.213052749634
 21
1185.4456357956
 31
0.
  0
LINE
  8
SICHTBARE_KANTE
 10
176.71297645569
 20
1151.2464170456
 30
0.
 11
271.71294593811
 21
1151.2464170456
 31
0.
  0
LINE
  8
SICHTBARE_KANTE
 10
1194.0426273346
 20
1191.4455137253
 30
0.
 11
1882.0422611237
 21
1191.4455137253
 31
0.
  0
LINE
  8
SICHTBARE_KANTE
 10
1193.2940921783
 20
1159.4925107956
 30
0.
 11
1882.0422611237
 21
1159.4886045456
 31
0.
  0
LINE
  8
SICHTBARE_KANTE
 10
1888.0422611237
 20
1165.4886045456
 30
0.
 11
1888.0422611237
 21
1185.4456357956
 31
0.
  0
LINE
  8
SICHTBARE_KANTE
 10
1188.0426273346
 20
1165.4456357956
 30
0.
 11
1188.0426273346
 21
1185.4456357956
 31
0.
  0
LINE
  8
SICHTBARE_KANTE
 10
1340.5425052643
 20
1151.2464170456
 30
0.
 11
1435.5425052643
 21
1151.2464170456
 31
0.
  0
ARC
  8
SICHTBARE_KANTE
 10
776.32522010803
 20
273.16279888153
 30
0.
 40
79.999961853027
 50
271.94108763922
 51
358.34496101897
  0
ARC
  8
SICHTBARE_KANTE
 10
918.21261024475
 20
1165.4886045456
 30
0.
 40
5.9999971389771
 50
270.
 51
0.
  0
ARC
  8
SICHTBARE_KANTE
 10
918.21261024475
 20
1185.4456357956
 30
0.
 40
5.9999971389771
 50
0.
 51
93.181964146861
  0
ARC
  8
SICHTBARE_KANTE
 10
-6140.7840328217
 20
473.0455198288
 30
0.
 40
6999.9965820313
 50
358.34479455639
 51
1.6552054436063
  0
ARC
  8
SICHTBARE_KANTE
 10
7089.2096195221
 20
473.0455198288
 30
0.
 40
6999.9965820313
 50
178.34479456
 51
181.65520544
  0
ARC
  8
SICHTBARE_KANTE
 10
474.2128238678
 20
9188.0412168503
 30
0.
 40
8999.99609375
 50
268.05906992114
 51
271.94093027303
  0
ARC
  8
SICHTBARE_KANTE
 10
474.2128238678
 20
-8241.9480409622
 30
0.
 40
8999.99609375
 50
88.059069726969
 51
91.940930175946
  0
ARC
  8
SICHTBARE_KANTE
 10
36.213045120239
 20
135.04568767548
 30
0.
 40
11.999994277954
 50
180.
 51
270.
  0
ARC
  8
SICHTBARE_KANTE
 10
30.213048934937
 20
1185.4456357956
 30
0.
 40
5.9999971389771
 50
87.061162414678
 51
180.
  0
ARC
  8
SICHTBARE_KANTE
 10
30.213048934937
 20
1165.4456357956
 30
0.
 40
5.9999971389771
 50
180.
 51
270.
  0
ARC
  8
SICHTBARE_KANTE
 10
271.71294593811
 20
1160.2464170456
 30
0.
 40
8.9999961853027
 50
270.
 51
335.37588329943
  0
ARC
  8
SICHTBARE_KANTE
 10
176.71297645569
 20
1160.2464170456
 30
0.
 40
8.9999961853027
 50
204.61014237984
 51
270.
  0
ARC
  8
SICHTBARE_KANTE
 10
154.89145851135
 20
1150.2542295456
 30
0.
 40
14.999992370605
 50
24.599957889888
 51
38.01607072136
  0
ARC
  8
SICHTBARE_KANTE
 10
776.32522010803
 20
672.92824077606
 30
0.
 40
79.999961853027
 50
1.6550389810292
 51
88.05891199061
  0
ARC
  8
SICHTBARE_KANTE
 10
172.10042762756
 20
672.92824077606
 30
0.
 40
79.999961853027
 50
91.94108800939
 51
178.34496007208
  0
ARC
  8
SICHTBARE_KANTE
 10
172.10042762756
 20
273.16279888153
 30
0.
 40
79.999961853027
 50
181.65503992792
 51
268.05891236078
  0
ARC
  8
SICHTBARE_KANTE
 10
36.213045120239
 20
811.04536724091
 30
0.
 40
11.999994277954
 50
90.
 51
180.
  0
ARC
  8
SICHTBARE_KANTE
 10
912.21261024475
 20
811.04536724091
 30
0.
 40
11.999994277954
 50
0.
 51
90.
  0
ARC
  8
SICHTBARE_KANTE
 10
912.21261024475
 20
135.04568767548
 30
0.
 40
11.999994277954
 50
270.
 51
0.
  0
ARC
  8
SICHTBARE_KANTE
 10
293.53127479553
 20
1150.2483701706
 30
0.
 40
14.999992370605
 50
141.95480941994
 51
155.38378238439
  0
ARC
  8
SICHTBARE_KANTE
 10
1882.0422611237
 20
1165.4886045456
 30
0.
 40
5.9999971389771
 50
270.
 51
0.
  0
ARC
  8
SICHTBARE_KANTE
 10
1882.0422611237
 20
1185.4456357956
 30
0.
 40
5.9999971389771
 50
0.
 51
93.181964146861
  0
ARC
  8
SICHTBARE_KANTE
 10
1194.0426273346
 20
1185.4456357956
 30
0.
 40
5.9999971389771
 50
87.061162414678
 51
180.
  0
ARC
  8
SICHTBARE_KANTE
 10
1194.0426273346
 20
1165.4456357956
 30
0.
 40
5.9999971389771
 50
180.
 51
270.
  0
ARC
  8
SICHTBARE_KANTE
 10
1435.5425052643
 20
1160.2464170456
 30
0.
 40
8.9999961853027
 50
270.
 51
335.37596424833
  0
ARC
  8
SICHTBARE_KANTE
 10
1340.5425052643
 20
1160.2464170456
 30
0.
 40
8.9999961853027
 50
204.61014237984
 51
270.
  0
ARC
  8
SICHTBARE_KANTE
 10
1318.7209720612
 20
1150.2542295456
 30
0.
 40
14.999992370605
 50
24.599933627085
 51
38.01607072136
  0
ARC
  8
SICHTBARE_KANTE
 10
1457.3608646393
 20
1150.2483701706
 30
0.
 40
14.999992370605
 50
141.95480941994
 51
155.38378238439
  0
CIRCLE
  8
SICHTBARE_KANTE
 10
224.2129611969
 20
623.04542827606
 30
0.
 40
44.999977111816
  0
TEXT
  8
2D-TEXT
 10
1577.6268558502
 20
737.70363140106
 30
0.
 40
99.999961853027
 50
0.
 51
360.
 41
.74666661326088
  1
SUPERPLAN
  7
DIN-EN-ISO-3098
 72
5
 11
2084.2932682037
 21
737.70363140106
 31
0.
  0
TEXT
  8
2D-TEXT
 10
2240.8597660065
 20
358.55925273895
 30
0.
 40
66.666641235352
 50
0.
 51
360.
 41
.91
  1
25
  7
DIN-EN-ISO-3098
 72
5
 11
2310.1930713654
 21
358.55925273895
 31
0.
  0
TEXT
  8
2D-TEXT
 10
1907.5259037018
 20
358.55925273895
 30
0.
 40
66.666641235352
 50
0.
 51
360.
 41
.91
  1
900
  7
DIN-EN-ISO-3098
 72
5
 11
2020.1925296783
 21
358.55925273895
 31
0.
  0
TEXT
  8
2D-TEXT
 10
1574.1930179596
 20
358.56120586395
 30
0.
 40
66.666641235352
 50
0.
 51
360.
 41
.91
  1
700
  7
DIN-EN-ISO-3098
 72
5
 11
1686.8596439362
 21
358.56120586395
 31
0.
  0
TEXT
  8
2D-TEXT
 10
2240.8597660065
 20
558.55916118622
 30
0.
 40
66.666641235352
 50
0.
 51
360.
 41
.91
  1
Tiefe
  7
DIN-EN-ISO-3098
 72
5
 11
2407.6930484772
 21
558.55916118622
 31
0.
  0
TEXT
  8
2D-TEXT
 10
1907.5268802643
 20
558.55916118622
 30
0.
 40
66.666641235352
 50
0.
 51
360.
 41
.91
  1
Breite
  7
DIN-EN-ISO-3098
 72
5
 11
2106.2968235016
 21
558.55916118622
 31
0.
  0
TEXT
  8
2D-TEXT
 10
1574.1939945221
 20
558.56111431122
 30
0.
 40
66.666641235352
 50
0.
 51
360.
 41
.91
  1
Laenge
  7
DIN-EN-ISO-3098
 72
5
 11
1816.8605747223
 21
558.56111431122
 31
0.
  0
TEXT
  8
2D-TEXT
 10
1240.8611087799
 20
558.56111431122
 30
0.
 40
66.666641235352
 50
0.
 51
360.
 41
.91
  1
Modell
  7
DIN-EN-ISO-3098
 72
5
 11
1448.8610477448
 21
558.56111431122
 31
0.
  0
TEXT
  8
2D-TEXT
 10
1240.8601322174
 20
358.56120586395
 30
0.
 40
66.666641235352
 50
0.
 51
360.
 41
.91
  1
400-1
  7
DIN-EN-ISO-3098
 72
5
 11
1425.0267276764
 21
358.56120586395
 31
0.
  0
ENDSEC
  0
EOF
