  0
SECTION
  2
HEADER
  9
$ACADVER
  1
AC1009
  9
$ANGBASE
 50
       0.000000
  9
$ANGDIR
 70
0
  9
$ATTDIA
 70
0
  9
$ATTMODE
 70
0
  9
$ATTREQ
 70
0
  9
$AUNITS
 70
0
  9
$AUPREC
 70
1
  9
$BLIPMODE
 70
1
  9
$CECOLOR
 62
256
  9
$CELTYPE
  6
BYLAYER
  9
$CHAMFERA
 40
       0.000000
  9
$CHAMFERB
 40
       0.000000
  9
$CLAYER
  8
0
  9
$COORDS
 70
1
  9
$DIMALT
 70
0
  9
$DIMALTD
 70
2
  9
$DIMALTF
 40
      25.400000
  9
$DIMAPOST
  1

  9
$DIMASO
 70
0
  9
$DIMASZ
 40
       3.500000
  9
$DIMBLK
  1

  9
$DIMBLK1
  1

  9
$DIMBLK2
  1

  9
$DIMCEN
 40
       1.500000
  9
$DIMCLRD
 70
0
  9
$DIMCLRE
 70
0
  9
$DIMCLRT
 70
0
  9
$DIMDLE
 40
       0.000000
  9
$DIMDLI
 40
       7.000000
  9
$DIMEXE
 40
       1.800000
  9
$DIMEXO
 40
       0.100000
  9
$DIMGAP
 40
       0.090000
  9
$DIMLFAC
 40
       1.000000
  9
$DIMLIM
 70
0
  9
$DIMPOST
  1

  9
$DIMRND
 40
       0.000000
  9
$DIMSAH
 70
0
  9
$DIMSCALE
 40
       1.000000
  9
$DIMSE1
 70
0
  9
$DIMSE2
 70
0
  9
$DIMSHO
 70
1
  9
$DIMSOXD
 70
0
  9
$DIMSTYLE
  2
*UNNAMED
  9
$DIMTAD
 70
1
  9
$DIMTFAC
 40
       1.000000
  9
$DIMTIH
 70
0
  9
$DIMTIX
 70
0
  9
$DIMTM
 40
       0.000000
  9
$DIMTOFL
 70
0
  9
$DIMTOH
 70
0
  9
$DIMTOL
 70
0
  9
$DIMTP
 40
       0.000000
  9
$DIMTSZ
 40
       0.000000
  9
$DIMTVP
 40
       0.000000
  9
$DIMTXT
 40
       3.500000
  9
$DIMZIN
 70
0
  9
$DRAGMODE
 70
2
  9
$DWGCODEPAGE
  3
iso8859-1
  9
$ELEVATION
 40
       0.000000
  9
$EXTMAX
 10
2857.1102790833
 20
1520.8044128418
 30
0.
  9
$EXTMIN
 10
-16.555492401123
 20
-16.555450439453
 30
0.
  9
$FILLETRAD
 40
       0.000000
  9
$FILLMODE
 70
1
  9
$HANDLING
 70
0
  9
$HANDSEED
  5
0
  9
$INSBASE
 10
       0.000000
 20
       0.000000
 30
       0.000000
  9
$LIMCHECK
 70
0
  9
$LIMMAX
 10
2857.1102790833
 20
1520.8044128418
  9
$LIMMIN
 10
-16.555492401123
 20
-16.555450439453
  9
$LTSCALE
 40
       1.000000
  9
$LUNITS
 70
2
  9
$LUPREC
 70
2
  9
$MAXACTVP
 70
16
  9
$MENU
  1
ACAD
  9
$MIRRTEXT
 70
0
  9
$ORTHOMODE
 70
0
  9
$OSMODE
 70
0
  9
$PDMODE
 70
0
  9
$PDSIZE
 40
       0.000000
  9
$PELEVATION
 40
       0.000000
  9
$PEXTMAX
 10
2857.1102790833
 20
1520.8044128418
 30
0.
  9
$PEXTMIN
 10
-16.555492401123
 20
-16.555450439453
 30
0.
  9
$PINSBASE
 10
       0.000000
 20
       0.000000
 30
       0.000000
  9
$PLIMCHECK
 70
0
  9
$PLIMMAX
 10
2857.1102790833
 20
1520.8044128418
  9
$PLIMMIN
 10
-16.555492401123
 20
-16.555450439453
  9
$PLINEGEN
 70
0
  9
$PLINEWID
 40
       0.000000
  9
$PSLTSCALE
 70
1
  9
$PUCSNAME
  2

  9
$PUCSORG
 10
       0.000000
 20
       0.000000
 30
       0.000000
  9
$PUCSXDIR
 10
       1.000000
 20
       0.000000
 30
       0.000000
  9
$PUCSYDIR
 10
       0.000000
 20
       1.000000
 30
       0.000000
  9
$QTEXTMODE
 70
0
  9
$REGENMODE
 70
1
  9
$SHADEDGE
 70
3
  9
$SHADEDIF
 70
70
  9
$SKETCHINC
 40
       1.000000
  9
$SKPOLY
 70
0
  9
$SPLFRAME
 70
0
  9
$SPLINESEGS
 70
8
  9
$SPLINETYPE
 70
6
  9
$SURFTAB1
 70
6
  9
$SURFTAB2
 70
6
  9
$SURFTYPE
 70
6
  9
$SURFU
 70
6
  9
$SURFV
 70
6
  9
$TDCREATE
 40
2457319.6520833
  9
$TDINDWG
 40
       0.000000
  9
$TDUPDATE
 40
2457319.6520833
  9
$TDUSRTIMER
 40
       0.000000
  9
$TEXTSIZE
 40
       3.500000
  9
$TEXTSTYLE
  7
STANDARD
  9
$THICKNESS
 40
       0.000000
  9
$TILEMODE
 70
1
  9
$TRACEWID
 40
       1.000000
  9
$TREEDEPTH
 70
-3020
  9
$UCSNAME
  2

  9
$UCSORG
 10
       0.000000
 20
       0.000000
 30
       0.000000
  9
$UCSXDIR
 10
       1.000000
 20
       0.000000
 30
       0.000000
  9
$UCSYDIR
 10
       0.000000
 20
       1.000000
 30
       0.000000
  9
$UNITMODE
 70
0
  9
$USERI1
 70
0
  9
$USERI2
 70
0
  9
$USERI3
 70
0
  9
$USERI4
 70
0
  9
$USERI5
 70
0
  9
$USERR1
 40
       0.000000
  9
$USERR2
 40
       0.000000
  9
$USERR3
 40
       0.000000
  9
$USERR4
 40
       0.000000
  9
$USERR5
 40
       0.000000
  9
$USRTIMER
 70
0
  9
$VISRETAIN
 70
0
  9
$WORLDVIEW
 70
1
  0
ENDSEC
  0
SECTION
  2
TABLES
  0
TABLE
  2
LTYPE
 70
167
  0
LTYPE
  2
AUSGEZOGEN
 70
0
  3
________________________________
 72
65
 73
2
 40
16.
 49
16.
 49
0.
  0
LTYPE
  2
VERDECKTE_KANTE
 70
0
  3
__________________________
 72
65
 73
2
 40
5.
 49
4.063
 49
-0.938
  0
LTYPE
  2
HILFSLINIE
 70
0
  3
________________________________
 72
65
 73
2
 40
16.
 49
16.
 49
0.
  0
LTYPE
  2
BRUCHLINIE
 70
0
  3
________________________________
 72
65
 73
2
 40
16.
 49
16.
 49
0.
  0
LTYPE
  2
MITTELLINIE
 70
0
  3
_______________________   ___
 72
65
 73
4
 40
13.
 49
9.34
 49
-1.22
 49
1.22
 49
-1.22
  0
LTYPE
  2
SCHNITTLINIE
 70
0
  3
_______________________   ___
 72
65
 73
4
 40
13.
 49
9.34
 49
-1.22
 49
1.22
 49
-1.22
  0
LTYPE
  2
SCHWERLINIE
 70
0
  3
______________________  __  __
 72
65
 73
6
 40
15.
 49
10.31
 49
-0.94
 49
0.94
 49
-0.94
 49
0.94
 49
-0.94
  0
LTYPE
  2
ENTWURFSLINIE
 70
0
  3
__      __      __      __
 72
65
 73
8
 40
16.
 49
1.
 49
-3.
 49
1.
 49
-3.
 49
1.
 49
-3.
 49
1.
 49
-3.
  0
LTYPE
  2
SONDERLINIE1
 70
0
  3
________________________________
 72
65
 73
2
 40
16.
 49
16.
 49
0.
  0
LTYPE
  2
SONDERLINIE2
 70
0
  3
______________________  __  __
 72
65
 73
6
 40
15.
 49
10.31
 49
-0.94
 49
0.94
 49
-0.94
 49
0.94
 49
-0.94
  0
LTYPE
  2
SONDERLINIE3
 70
0
  3
__________________  __  __  __
 72
65
 73
8
 40
16.
 49
9.
 49
-1.
 49
1.
 49
-1.
 49
1.
 49
-1.
 49
1.
 49
-1.
  0
LTYPE
  2
SONDERLINIE4
 70
0
  3
__________________  __  __  __
 72
65
 73
8
 40
16.
 49
9.
 49
-1.
 49
1.
 49
-1.
 49
1.
 49
-1.
 49
1.
 49
-1.
  0
LTYPE
  2
SONDERLINIE5
 70
0
  3
______________  __  __  __  __
 72
65
 73
10
 40
16.
 49
7.
 49
-1.
 49
1.
 49
-1.
 49
1.
 49
-1.
 49
1.
 49
-1.
 49
1.
 49
-1.
  0
LTYPE
  2
SONDERLINIE6
 70
0
  3
______________  __  __  __  __
 72
65
 73
10
 40
16.
 49
7.
 49
-1.
 49
1.
 49
-1.
 49
1.
 49
-1.
 49
1.
 49
-1.
 49
1.
 49
-1.
  0
LTYPE
  2
SONDERLINIE7
 70
0
  3
__________  __  __  __  __  __
 72
65
 73
12
 40
16.
 49
5.
 49
-1.
 49
1.
 49
-1.
 49
1.
 49
-1.
 49
1.
 49
-1.
 49
1.
 49
-1.
 49
1.
 49
-1.
  0
LTYPE
  2
SONDERLINIE8
 70
0
  3
__________  __  __  __  __  __
 72
65
 73
12
 40
16.
 49
5.
 49
-1.
 49
1.
 49
-1.
 49
1.
 49
-1.
 49
1.
 49
-1.
 49
1.
 49
-1.
 49
1.
 49
-1.
  0
LTYPE
  2
HEIZUNG-VORLAUF
 70
0
  3
 
 72
65
 73
2
 40
16.
 49
16.
 49
0.
  0
LTYPE
  2
HEIZUNG-RUECKLAUF
 70
0
  3
 
 72
65
 73
2
 40
5.
 49
4.063
 49
-0.938
  0
LTYPE
  2
TRINKWASSER-KALT
 70
0
  3
 
 72
65
 73
2
 40
16.
 49
16.
 49
0.
  0
LTYPE
  2
TRINKWASSER-WARM
 70
0
  3
 
 72
65
 73
2
 40
5.
 49
4.063
 49
-0.938
  0
LTYPE
  2
TRINKWASSER-ZIRKULATION
 70
0
  3
 
 72
65
 73
4
 40
13.
 49
9.34
 49
-1.22
 49
1.22
 49
-1.22
  0
LTYPE
  2
SANITAER-SCHMUTZWASSER
 70
0
  3
 
 72
65
 73
2
 40
16.
 49
16.
 49
0.
  0
LTYPE
  2
SANITAER-REGENWASSER
 70
0
  3
 
 72
65
 73
2
 40
5.
 49
4.063
 49
-0.938
  0
LTYPE
  2
SANITAER-MISCHWASSER
 70
0
  3
 
 72
65
 73
4
 40
13.
 49
9.34
 49
-1.22
 49
1.22
 49
-1.22
  0
LTYPE
  2
SANITAER-ENTLUEFTUNG
 70
0
  3
 
 72
65
 73
2
 40
5.
 49
4.063
 49
-0.938
  0
LTYPE
  2
SPRINKLER
 70
0
  3
 
 72
65
 73
2
 40
16.
 49
16.
 49
0.
  0
LTYPE
  2
WERKWASSER
 70
0
  3
 
 72
65
 73
2
 40
16.
 49
16.
 49
0.
  0
LTYPE
  2
KUEHLWASSER-VL
 70
0
  3
 
 72
65
 73
2
 40
16.
 49
16.
 49
0.
  0
LTYPE
  2
KUEHLWASSER-RL-D
 70
0
  3
 
 72
65
 73
2
 40
5.
 49
4.063
 49
-0.938
  0
LTYPE
  2
KUEHLWASSER-RL-DI
 70
0
  3
 
 72
65
 73
2
 40
5.
 49
4.063
 49
-0.938
  0
LTYPE
  2
KALTWASSER-KAELTEANL--VL
 70
0
  3
 
 72
65
 73
2
 40
16.
 49
16.
 49
0.
  0
LTYPE
  2
KALTWASSER-KAELTEANL--RL
 70
0
  3
 
 72
65
 73
2
 40
5.
 49
4.063
 49
-0.938
  0
LTYPE
  2
SCHLEIFEMULSION
 70
0
  3
 
 72
65
 73
2
 40
16.
 49
16.
 49
0.
  0
LTYPE
  2
BOHREMULSION
 70
0
  3
 
 72
65
 73
2
 40
16.
 49
16.
 49
0.
  0
LTYPE
  2
SCHNEIDEMULSION
 70
0
  3
 
 72
65
 73
2
 40
16.
 49
16.
 49
0.
  0
LTYPE
  2
DRUCKLUFT-HAUPTNETZ
 70
0
  3
 
 72
65
 73
2
 40
16.
 49
16.
 49
0.
  0
LTYPE
  2
DRUCKLUFT-HOCHDRUCKNETZ
 70
0
  3
 
 72
65
 73
2
 40
16.
 49
16.
 49
0.
  0
LTYPE
  2
DRUCKLUFT-NIEDERDRUCKNETZ
 70
0
  3
 
 72
65
 73
2
 40
16.
 49
16.
 49
0.
  0
LTYPE
  2
MISCHWASSER-DRUCK
 70
0
  3
 
 72
65
 73
2
 40
16.
 49
16.
 49
0.
  0
LTYPE
  2
MISCHWASSER-KANAL
 70
0
  3
 
 72
65
 73
2
 40
16.
 49
16.
 49
0.
  0
LTYPE
  2
OELHALTIGES-ABWASSER-DRUCK
 70
0
  3
 
 72
65
 73
2
 40
16.
 49
16.
 49
0.
  0
LTYPE
  2
OELHALTIGES-ABWASSER-KANAL
 70
0
  3
 
 72
65
 73
2
 40
16.
 49
16.
 49
0.
  0
LTYPE
  2
REGENWASSER-DRUCK
 70
0
  3
 
 72
65
 73
2
 40
16.
 49
16.
 49
0.
  0
LTYPE
  2
REGENWASSER-KANAL
 70
0
  3
 
 72
65
 73
2
 40
16.
 49
16.
 49
0.
  0
LTYPE
  2
SCHMUTZWASSER-DRUCK
 70
0
  3
 
 72
65
 73
2
 40
16.
 49
16.
 49
0.
  0
LTYPE
  2
SCHMUTZWASSER-KANAL
 70
0
  3
 
 72
65
 73
2
 40
16.
 49
16.
 49
0.
  0
LTYPE
  2
ALTEMULSION
 70
0
  3
 
 72
65
 73
2
 40
16.
 49
16.
 49
0.
  0
LTYPE
  2
ALTWASCHWASSER
 70
0
  3
 
 72
65
 73
2
 40
16.
 49
16.
 49
0.
  0
LTYPE
  2
CHROMHALTIGES-SPUELWASSER
 70
0
  3
 
 72
65
 73
2
 40
16.
 49
16.
 49
0.
  0
LTYPE
  2
CYANIDHALTIGES-SPUELWASSER
 70
0
  3
 
 72
65
 73
2
 40
16.
 49
16.
 49
0.
  0
LTYPE
  2
GEKLAERTES-ABWASSER
 70
0
  3
 
 72
65
 73
2
 40
16.
 49
16.
 49
0.
  0
LTYPE
  2
NITRITHALTIGES-SPUELWASSER
 70
0
  3
 
 72
65
 73
2
 40
16.
 49
16.
 49
0.
  0
LTYPE
  2
SAURES-ALKALISCHES-ELUAT
 70
0
  3
 
 72
65
 73
2
 40
16.
 49
16.
 49
0.
  0
LTYPE
  2
SAURES-ALKALISCHES-SPUELWASSER
 70
0
  3
 
 72
65
 73
2
 40
16.
 49
16.
 49
0.
  0
LTYPE
  2
AMIDASULFONSAEURE
 70
0
  3
 
 72
65
 73
2
 40
16.
 49
16.
 49
0.
  0
LTYPE
  2
CHROMHALTIGES-KONZENTRAT
 70
0
  3
 
 72
65
 73
2
 40
16.
 49
16.
 49
0.
  0
LTYPE
  2
CYANIDHALTIGES-KONZENTRAT
 70
0
  3
 
 72
65
 73
2
 40
16.
 49
16.
 49
0.
  0
LTYPE
  2
ELEKTROLYT
 70
0
  3
 
 72
65
 73
2
 40
16.
 49
16.
 49
0.
  0
LTYPE
  2
NATRIUMBISULFIT
 70
0
  3
 
 72
65
 73
2
 40
16.
 49
16.
 49
0.
  0
LTYPE
  2
NATRIUMHYPOCHLORIT
 70
0
  3
 
 72
65
 73
2
 40
16.
 49
16.
 49
0.
  0
LTYPE
  2
NATRONLAUGE
 70
0
  3
 
 72
65
 73
2
 40
16.
 49
16.
 49
0.
  0
LTYPE
  2
NITRITHALTIGES-KONZENTRAT
 70
0
  3
 
 72
65
 73
2
 40
16.
 49
16.
 49
0.
  0
LTYPE
  2
PHOSPHORSAEURE
 70
0
  3
 
 72
65
 73
2
 40
16.
 49
16.
 49
0.
  0
LTYPE
  2
SALPETERSAEURE
 70
0
  3
 
 72
65
 73
2
 40
16.
 49
16.
 49
0.
  0
LTYPE
  2
SALZSAEURE
 70
0
  3
 
 72
65
 73
2
 40
16.
 49
16.
 49
0.
  0
LTYPE
  2
SCHWEFELSAEURE
 70
0
  3
 
 72
65
 73
2
 40
16.
 49
16.
 49
0.
  0
LTYPE
  2
BETRIEBSWAERME-RL
 70
0
  3
 
 72
65
 73
2
 40
5.
 49
4.063
 49
-0.938
  0
LTYPE
  2
BETRIEBSWAERME-VL
 70
0
  3
 
 72
65
 73
2
 40
16.
 49
16.
 49
0.
  0
LTYPE
  2
WARMWASSER-VL
 70
0
  3
 
 72
65
 73
2
 40
16.
 49
16.
 49
0.
  0
LTYPE
  2
WARMWASSER-ZIRKULATION
 70
0
  3
 
 72
65
 73
4
 40
13.
 49
9.34
 49
-1.22
 49
1.22
 49
-1.22
  0
LTYPE
  2
ROHWASSER
 70
0
  3
 
 72
65
 73
2
 40
16.
 49
16.
 49
0.
  0
LTYPE
  2
ARGON
 70
0
  3
 
 72
65
 73
2
 40
16.
 49
16.
 49
0.
  0
LTYPE
  2
CORGON
 70
0
  3
 
 72
65
 73
2
 40
16.
 49
16.
 49
0.
  0
LTYPE
  2
KOHLENDIOXID
 70
0
  3
 
 72
65
 73
2
 40
16.
 49
16.
 49
0.
  0
LTYPE
  2
STICKSTOFF
 70
0
  3
 
 72
65
 73
2
 40
16.
 49
16.
 49
0.
  0
LTYPE
  2
AZETYLEN
 70
0
  3
 
 72
65
 73
2
 40
16.
 49
16.
 49
0.
  0
LTYPE
  2
ERDGAS
 70
0
  3
 
 72
65
 73
2
 40
16.
 49
16.
 49
0.
  0
LTYPE
  2
SAUERSTOFF--TECHNISCH-REIN
 70
0
  3
 
 72
65
 73
2
 40
16.
 49
16.
 49
0.
  0
LTYPE
  2
TRAEGERGAS
 70
0
  3
 
 72
65
 73
2
 40
16.
 49
16.
 49
0.
  0
LTYPE
  2
WASSERSTOFF
 70
0
  3
 
 72
65
 73
2
 40
16.
 49
16.
 49
0.
  0
LTYPE
  2
KRAFTSTOFF-GK-A-I-D
 70
0
  3
 
 72
65
 73
2
 40
16.
 49
16.
 49
0.
  0
LTYPE
  2
KRAFTSTOFF-SONDER-D
 70
0
  3
 
 72
65
 73
2
 40
16.
 49
16.
 49
0.
  0
LTYPE
  2
ACHSOEL
 70
0
  3
 
 72
65
 73
2
 40
16.
 49
16.
 49
0.
  0
LTYPE
  2
ALTOEL
 70
0
  3
 
 72
65
 73
2
 40
16.
 49
16.
 49
0.
  0
LTYPE
  2
BOHROEL
 70
0
  3
 
 72
65
 73
2
 40
16.
 49
16.
 49
0.
  0
LTYPE
  2
ERODIEROEL
 70
0
  3
 
 72
65
 73
2
 40
16.
 49
16.
 49
0.
  0
LTYPE
  2
FETT
 70
0
  3
 
 72
65
 73
2
 40
16.
 49
16.
 49
0.
  0
LTYPE
  2
GETRIEBEOEL
 70
0
  3
 
 72
65
 73
2
 40
16.
 49
16.
 49
0.
  0
LTYPE
  2
HAERTEOEL
 70
0
  3
 
 72
65
 73
2
 40
16.
 49
16.
 49
0.
  0
LTYPE
  2
HONOEL
 70
0
  3
 
 72
65
 73
2
 40
16.
 49
16.
 49
0.
  0
LTYPE
  2
HYDRAULIKOEL
 70
0
  3
 
 72
65
 73
2
 40
16.
 49
16.
 49
0.
  0
LTYPE
  2
MOTOROEL
 70
0
  3
 
 72
65
 73
2
 40
16.
 49
16.
 49
0.
  0
LTYPE
  2
NORMALSPUELOEL
 70
0
  3
 
 72
65
 73
2
 40
16.
 49
16.
 49
0.
  0
LTYPE
  2
RAEUMOEL
 70
0
  3
 
 72
65
 73
2
 40
16.
 49
16.
 49
0.
  0
LTYPE
  2
SCHLEIFOEL
 70
0
  3
 
 72
65
 73
2
 40
16.
 49
16.
 49
0.
  0
LTYPE
  2
SCHNEIDOEL
 70
0
  3
 
 72
65
 73
2
 40
16.
 49
16.
 49
0.
  0
LTYPE
  2
SONDERSPUELOEL
 70
0
  3
 
 72
65
 73
2
 40
16.
 49
16.
 49
0.
  0
LTYPE
  2
ZIEHOEL
 70
0
  3
 
 72
65
 73
2
 40
16.
 49
16.
 49
0.
  0
LTYPE
  2
MONTAGEOEL
 70
0
  3
 
 72
65
 73
2
 40
16.
 49
16.
 49
0.
  0
LTYPE
  2
MONTAGE-GLEITOEL
 70
0
  3
 
 72
65
 73
2
 40
16.
 49
16.
 49
0.
  0
LTYPE
  2
SPUELOEL
 70
0
  3
 
 72
65
 73
2
 40
16.
 49
16.
 49
0.
  0
LTYPE
  2
TIEFBOHROEL
 70
0
  3
 
 72
65
 73
2
 40
16.
 49
16.
 49
0.
  0
LTYPE
  2
AMIN
 70
0
  3
 
 72
65
 73
2
 40
16.
 49
16.
 49
0.
  0
LTYPE
  2
HAERTER
 70
0
  3
 
 72
65
 73
2
 40
16.
 49
16.
 49
0.
  0
LTYPE
  2
HARZ
 70
0
  3
 
 72
65
 73
2
 40
16.
 49
16.
 49
0.
  0
LTYPE
  2
LOESEMITTEL
 70
0
  3
 
 72
65
 73
2
 40
16.
 49
16.
 49
0.
  0
LTYPE
  2
LACK
 70
0
  3
 
 72
65
 73
2
 40
16.
 49
16.
 49
0.
  0
LTYPE
  2
WASCHWASSER
 70
0
  3
 
 72
65
 73
2
 40
16.
 49
16.
 49
0.
  0
LTYPE
  2
GLEITSCHLEIFWASSER
 70
0
  3
 
 72
65
 73
2
 40
16.
 49
16.
 49
0.
  0
LTYPE
  2
VERDUENNUNG
 70
0
  3
 
 72
65
 73
2
 40
16.
 49
16.
 49
0.
  0
LTYPE
  2
KUEHLDECKEN-VORLAUF
 70
0
  3
 
 72
65
 73
2
 40
16.
 49
16.
 49
0.
  0
LTYPE
  2
KUEHLDECKEN-RUECKLAUF
 70
0
  3
 
 72
65
 73
2
 40
5.
 49
4.063
 49
-0.938
  0
LTYPE
  2
KONDENSAT
 70
0
  3
 
 72
65
 73
2
 40
16.
 49
16.
 49
0.
  0
LTYPE
  2
KONDENSAT-REINDAMPF
 70
0
  3
 
 72
65
 73
2
 40
16.
 49
16.
 49
0.
  0
LTYPE
  2
KONDENSAT-HOCHDRUCK
 70
0
  3
 
 72
65
 73
2
 40
16.
 49
16.
 49
0.
  0
LTYPE
  2
DAMPF
 70
0
  3
 
 72
65
 73
2
 40
16.
 49
16.
 49
0.
  0
LTYPE
  2
REINDAMPF
 70
0
  3
 
 72
65
 73
2
 40
16.
 49
16.
 49
0.
  0
LTYPE
  2
DAMPF-HOCHDRUCK
 70
0
  3
 
 72
65
 73
2
 40
16.
 49
16.
 49
0.
  0
LTYPE
  2
KLIMA-ZENTRALE
 70
0
  3
 
 72
65
 73
2
 40
16.
 49
16.
 49
0.
  0
LTYPE
  2
KLIMA-AUSSENLUFT
 70
0
  3
 
 72
65
 73
4
 40
13.
 49
9.34
 49
-1.22
 49
1.22
 49
-1.22
  0
LTYPE
  2
KLIMA-ZULUFT-I
 70
0
  3
 
 72
65
 73
2
 40
16.
 49
16.
 49
0.
  0
LTYPE
  2
KLIMA-ZULUFT-II
 70
0
  3
 
 72
65
 73
2
 40
16.
 49
16.
 49
0.
  0
LTYPE
  2
KLIMA-ZULUFT-III
 70
0
  3
 
 72
65
 73
2
 40
16.
 49
16.
 49
0.
  0
LTYPE
  2
KLIMA-ZULUFT-IV
 70
0
  3
 
 72
65
 73
2
 40
16.
 49
16.
 49
0.
  0
LTYPE
  2
KLIMA-UMLUFT
 70
0
  3
 
 72
65
 73
2
 40
5.
 49
4.063
 49
-0.938
  0
LTYPE
  2
KLIMA-MISCHLUFT
 70
0
  3
 
 72
65
 73
6
 40
11.
 49
3.78
 49
-1.03
 49
3.78
 49
-1.03
 49
0.34
 49
-1.03
  0
LTYPE
  2
KLIMA-ABLUFT
 70
0
  3
 
 72
65
 73
2
 40
5.
 49
4.063
 49
-0.938
  0
LTYPE
  2
KLIMA-FORTLUFT
 70
0
  3
 
 72
65
 73
2
 40
5.
 49
4.063
 49
-0.938
  0
LTYPE
  2
ENTRAUCHUNG
 70
0
  3
 
 72
65
 73
2
 40
5.
 49
4.063
 49
-0.938
  0
LTYPE
  2
ELEKTRO-ZENTRALE
 70
0
  3
 
 72
65
 73
2
 40
16.
 49
16.
 49
0.
  0
LTYPE
  2
STROMSCHIENEN
 70
0
  3
 
 72
65
 73
2
 40
16.
 49
16.
 49
0.
  0
LTYPE
  2
ELEKTRO-LEITUNGSFUEHRUNG
 70
0
  3
 
 72
65
 73
2
 40
16.
 49
16.
 49
0.
  0
LTYPE
  2
ELEKTRO-KABELTRAEGER
 70
0
  3
 
 72
65
 73
2
 40
16.
 49
16.
 49
0.
  0
LTYPE
  2
INNENWAND
 70
0
  3
 
 72
65
 73
2
 40
16.
 49
16.
 49
0.
  0
LTYPE
  2
AUSSENWAND
 70
0
  3
 
 72
65
 73
2
 40
16.
 49
16.
 49
0.
  0
LTYPE
  2
ERDBERUEHRENDE-WAND
 70
0
  3
 
 72
65
 73
2
 40
16.
 49
16.
 49
0.
  0
LTYPE
  2
REINWASSER
 70
0
  3
 
 72
65
 73
2
 40
16.
 49
16.
 49
0.
  0
LTYPE
  2
MESSWASSER
 70
0
  3
 
 72
65
 73
2
 40
16.
 49
16.
 49
0.
  0
LTYPE
  2
SCHWALLWASSER
 70
0
  3
 
 72
65
 73
2
 40
16.
 49
16.
 49
0.
  0
LTYPE
  2
SCHLAMMWASSER
 70
0
  3
 
 72
65
 73
2
 40
16.
 49
16.
 49
0.
  0
LTYPE
  2
ERSTFILTRAT
 70
0
  3
 
 72
65
 73
2
 40
16.
 49
16.
 49
0.
  0
LTYPE
  2
FILTRAT
 70
0
  3
 
 72
65
 73
2
 40
16.
 49
16.
 49
0.
  0
LTYPE
  2
SOLE-FILTRAT
 70
0
  3
 
 72
65
 73
2
 40
16.
 49
16.
 49
0.
  0
LTYPE
  2
SOLE-REINWASSER
 70
0
  3
 
 72
65
 73
2
 40
16.
 49
16.
 49
0.
  0
LTYPE
  2
SOLE-ROHWASSER
 70
0
  3
 
 72
65
 73
2
 40
16.
 49
16.
 49
0.
  0
LTYPE
  2
SPUELWASSER
 70
0
  3
 
 72
65
 73
2
 40
16.
 49
16.
 49
0.
  0
LTYPE
  2
SPUELLUFT
 70
0
  3
 
 72
65
 73
2
 40
16.
 49
16.
 49
0.
  0
LTYPE
  2
CHLORLOESUNG
 70
0
  3
 
 72
65
 73
2
 40
16.
 49
16.
 49
0.
  0
LTYPE
  2
PH-LOESUNG
 70
0
  3
 
 72
65
 73
2
 40
16.
 49
16.
 49
0.
  0
LTYPE
  2
FLOCKUNGSMITTEL
 70
0
  3
 
 72
65
 73
2
 40
16.
 49
16.
 49
0.
  0
LTYPE
  2
SEEWASSER--KALT
 70
0
  3
 
 72
65
 73
2
 40
16.
 49
16.
 49
0.
  0
LTYPE
  2
SEEWASSER--WARM
 70
0
  3
 
 72
65
 73
2
 40
5.
 49
4.063
 49
-0.938
  0
LTYPE
  2
SEEWASSER--ZIRKULATION
 70
0
  3
 
 72
65
 73
4
 40
13.
 49
9.34
 49
-1.22
 49
1.22
 49
-1.22
  0
LTYPE
  2
LABORWASSER--KALT
 70
0
  3
 
 72
65
 73
2
 40
16.
 49
16.
 49
0.
  0
LTYPE
  2
LABORWASSER--WARM
 70
0
  3
 
 72
65
 73
2
 40
5.
 49
4.063
 49
-0.938
  0
LTYPE
  2
LABORWASSER--ZIRKULATION
 70
0
  3
 
 72
65
 73
4
 40
13.
 49
9.34
 49
-1.22
 49
1.22
 49
-1.22
  0
LTYPE
  2
WASSER-VOLL-ENTHAERTET-VL
 70
0
  3
 
 72
65
 73
2
 40
16.
 49
16.
 49
0.
  0
LTYPE
  2
WASSER-VOLL-ENTHAERTET-RL
 70
0
  3
 
 72
65
 73
2
 40
16.
 49
16.
 49
0.
  0
LTYPE
  2
PROZESSKUEHLWASSER-VL
 70
0
  3
 
 72
65
 73
2
 40
16.
 49
16.
 49
0.
  0
LTYPE
  2
PROZESSKUEHLWASSER-RL
 70
0
  3
 
 72
65
 73
2
 40
16.
 49
16.
 49
0.
  0
LTYPE
  2
EINBAURAUM
 70
0
  3
 
 72
65
 73
2
 40
16.
 49
16.
 49
0.
  0
LTYPE
  2
INNENRAUM
 70
0
  3
 
 72
65
 73
2
 40
16.
 49
16.
 49
0.
  0
LTYPE
  2
BODENPLATTE
 70
0
  3
 
 72
65
 73
2
 40
16.
 49
16.
 49
0.
  0
LTYPE
  2
DECKE
 70
0
  3
 
 72
65
 73
2
 40
16.
 49
16.
 49
0.
  0
LTYPE
  2
DACH
 70
0
  3
 
 72
65
 73
2
 40
16.
 49
16.
 49
0.
  0
LTYPE
  2
KAELTEMITTEL-VORLAUF
 70
0
  3
 
 72
65
 73
2
 40
16.
 49
16.
 49
0.
  0
LTYPE
  2
KAELTEMITTEL-RUECKLAUF
 70
0
  3
 
 72
65
 73
2
 40
16.
 49
16.
 49
0.
  0
ENDTAB
  0
TABLE
  2
LAYER
 70
25
  0
LAYER
  2
0
 62
7
  6
AUSGEZOGEN
 70
64
  0
LAYER
  2
SICHTBARE_KANTE
 62
7
  6
AUSGEZOGEN
 70
64
  0
LAYER
  2
VERDECKTE_KANTE
 62
8
  6
VERDECKTE_KANTE
 70
64
  0
LAYER
  2
HILFSLINIE
 62
8
  6
HILFSLINIE
 70
64
  0
LAYER
  2
BRUCHLINIE
 62
8
  6
BRUCHLINIE
 70
64
  0
LAYER
  2
MITTELLINIE
 62
8
  6
MITTELLINIE
 70
64
  0
LAYER
  2
SCHNITTLINIE
 62
7
  6
SCHNITTLINIE
 70
64
  0
LAYER
  2
SCHWERLINIE
 62
8
  6
SCHWERLINIE
 70
64
  0
LAYER
  2
ENTWURFSLINIE
 62
8
  6
ENTWURFSLINIE
 70
64
  0
LAYER
  2
SONDERLINIE_1
 62
8
  6
SONDERLINIE1
 70
64
  0
LAYER
  2
SONDERLINIE_2
 62
8
  6
SONDERLINIE2
 70
64
  0
LAYER
  2
SONDERLINIE_3
 62
8
  6
SONDERLINIE3
 70
64
  0
LAYER
  2
SONDERLINIE_4
 62
8
  6
SONDERLINIE4
 70
64
  0
LAYER
  2
SONDERLINIE_5
 62
8
  6
SONDERLINIE5
 70
64
  0
LAYER
  2
SONDERLINIE_6
 62
8
  6
SONDERLINIE6
 70
64
  0
LAYER
  2
SONDERLINIE_7
 62
8
  6
SONDERLINIE7
 70
64
  0
LAYER
  2
SONDERLINIE_8
 62
8
  6
SONDERLINIE8
 70
64
  0
LAYER
  2
2D-TEXT
 62
7
  6
AUSGEZOGEN
 70
64
  0
LAYER
  2
SCHRAFFUR
 62
8
  6
HILFSLINIE
 70
64
  0
LAYER
  2
SYMBOL
 62
7
  6
HILFSLINIE
 70
64
  0
LAYER
  2
BEMASSUNG
 62
8
  6
HILFSLINIE
 70
64
  0
LAYER
  2
OBERFLAECHENZEICHEN
 62
8
  6
HILFSLINIE
 70
64
  0
LAYER
  2
FORM-LAGE-TOLERANZEN
 62
8
  6
HILFSLINIE
 70
64
  0
LAYER
  2
SCHWEISSZEICHEN
 62
8
  6
HILFSLINIE
 70
64
  0
LAYER
  2
GRUNDEBENE
 62
7
  6
AUSGEZOGEN
 70
64
  0
ENDTAB
  0
TABLE
  2
STYLE
 70
23
  0
STYLE
  2
STANDARD
 70
0
 40
0
 41
       1.000000
 50
       0.000000
 71
0
 42
       3.500000
  3
isocp
  4

  0
STYLE
  2
DIN-EN-ISO-3098
 70
0
 40
0
 41
       1.000000
 50
       0.000000
 71
0
 42
       3.500000
  3
isocp
  4

  0
STYLE
  2
ROMAN
 70
0
 40
0
 41
       1.000000
 50
       0.000000
 71
0
 42
       3.500000
  3
romans.shx
  4

  0
STYLE
  2
SCRIPT
 70
0
 40
0
 41
       1.000000
 50
       0.000000
 71
0
 42
       3.500000
  3
scripts.shx
  4

  0
STYLE
  2
GRIECHISCH
 70
0
 40
0
 41
       1.000000
 50
       0.000000
 71
0
 42
       3.500000
  3
greeks.shx
  4

  0
STYLE
  2
KYRILLISCH
 70
0
 40
0
 41
       1.000000
 50
       0.000000
 71
0
 42
       3.500000
  3
cyrillic.shx
  4

  0
STYLE
  2
MATH--FORMELZEICHEN
 70
0
 40
0
 41
       1.000000
 50
       0.000000
 71
0
 42
       3.500000
  3
symath.shx
  4

  0
STYLE
  2
DOPPELLINIE
 70
0
 40
0
 41
       1.000000
 50
       0.000000
 71
0
 42
       3.500000
  3
swissko.ttf
  4

  0
STYLE
  2
SERIFENSCHRIFT
 70
0
 40
0
 41
       1.000000
 50
       0.000000
 71
0
 42
       3.500000
  3
romanc__.ttf
  4

  0
STYLE
  2
ARIAL
 70
0
 40
0
 41
       1.000000
 50
       0.000000
 71
0
 42
       3.500000
  3
arial.ttf
  4

  0
STYLE
  2
ARIAL-FETT
 70
0
 40
0
 41
       1.000000
 50
       0.000000
 71
0
 42
       3.500000
  3
arialbd.ttf
  4

  0
STYLE
  2
TIMES-NEW-ROMAN
 70
0
 40
0
 41
       1.000000
 50
       0.000000
 71
0
 42
       3.500000
  3
times.ttf
  4

  0
STYLE
  2
TIMES-NEW-ROMAN-FETT
 70
0
 40
0
 41
       1.000000
 50
       0.000000
 71
0
 42
       3.500000
  3
timesbd.ttf
  4

  0
STYLE
  2
ISO-3098-OSTEUROPA
 70
0
 40
0
 41
       1.000000
 50
       0.000000
 71
0
 42
       3.500000
  3
txt
  4

  0
STYLE
  2
ISO-3098-KYRILLISCH
 70
0
 40
0
 41
       1.000000
 50
       0.000000
 71
0
 42
       3.500000
  3
txt
  4

  0
STYLE
  2
ARIAL-OSTEUROPA
 70
0
 40
0
 41
       1.000000
 50
       0.000000
 71
0
 42
       3.500000
  3
arial.ttf
  4

  0
STYLE
  2
ARIAL-KYRILLISCH
 70
0
 40
0
 41
       1.000000
 50
       0.000000
 71
0
 42
       3.500000
  3
arial.ttf
  4

  0
STYLE
  2
ARIAL-FETT-OSTEUROPA
 70
0
 40
0
 41
       1.000000
 50
       0.000000
 71
0
 42
       3.500000
  3
arialbd.ttf
  4

  0
STYLE
  2
ARIAL-FETT-KYRILLISCH
 70
0
 40
0
 41
       1.000000
 50
       0.000000
 71
0
 42
       3.500000
  3
arialbd.ttf
  4

  0
STYLE
  2
TIMES-N-R-OSTEUROPA
 70
0
 40
0
 41
       1.000000
 50
       0.000000
 71
0
 42
       3.500000
  3
times.ttf
  4

  0
STYLE
  2
TIMES-N-R-KYRILLISCH
 70
0
 40
0
 41
       1.000000
 50
       0.000000
 71
0
 42
       3.500000
  3
times.ttf
  4

  0
STYLE
  2
TIMES-N-R-FETT-OSTEUROPA
 70
0
 40
0
 41
       1.000000
 50
       0.000000
 71
0
 42
       3.500000
  3
timesbd.ttf
  4

  0
STYLE
  2
TIMES-N-R-FETT-KYRILLISCH
 70
0
 40
0
 41
       1.000000
 50
       0.000000
 71
0
 42
       3.500000
  3
timesbd.ttf
  4

  0
ENDTAB
  0
TABLE
  2
VIEW
 70
0
  0
ENDTAB
  0
TABLE
  2
VPORT
 70
2
  0
VPORT
  2
*ACTIVE
 70
0
 10
       0.000000
 20
       0.000000
 11
       1.000000
 21
       1.000000
 12
1420.2773933411
 22
752.12448120117
 13
       0.000000
 23
       0.000000
 14
       1.000000
 24
       1.000000
 15
       0.000000
 25
       0.000000
 16
       0.000000
 26
       0.000000
 36
       1.000000
 17
       0.000000
 27
       0.000000
 37
       0.000000
 40
1537.3598632813
 41
1.8692212800138
 42
      50.000000
 43
       0.000000
 44
       0.000000
 50
       0.000000
 51
       0.000000
 71
0
 72
100
 73
1
 74
1
 75
0
 76
0
 77
0
 78
0
  0
ENDTAB
  0
TABLE
  2
APPID
 70
2
  0
APPID
  2
ACAD
 70
0
  0
APPID
  2
AC2KIMGDXF12EXP
 70
0
  0
ENDTAB
  0
TABLE
  2
DIMSTYLE
 70
1
  0
DIMSTYLE
  2
STDBEM
 70
0
  3

  4

  5

  6

  7

 40
       1.000000
 41
       3.500000
 42
       0.100000
 43
       7.000000
 44
       1.800000
 45
       0.000000
 46
       0.000000
 47
       0.000000
 48
       0.000000
140
       3.500000
141
       1.500000
142
       0.000000
143
      25.400000
144
       1.000000
145
       0.000000
146
       1.000000
147
       0.090000
 71
0
 72
0
 73
0
 74
0
 75
0
 76
0
 77
1
 78
0
170
0
171
2
172
0
173
0
174
0
175
0
176
0
177
0
178
0
  0
ENDTAB
  0
ENDSEC
  0
SECTION
  2
BLOCKS
  0
ENDSEC
  0
SECTION
  2
ENTITIES
  0
LINE
  8
HILFSLINIE
 10
1658.4912605286
 20
689.83871459961
 30
0.
 11
2845.4921150208
 21
689.83871459961
 31
0.
  0
LINE
  8
HILFSLINIE
 10
43.173072814941
 20
867.11795043945
 30
0.
 11
1219.1729011536
 21
867.11795043945
 31
0.
  0
LINE
  8
HILFSLINIE
 10
1225.1729011536
 20
861.11795043945
 30
0.
 11
1225.1729011536
 21
185.11804199219
 31
0.
  0
LINE
  8
HILFSLINIE
 10
1219.1729011536
 20
179.11804199219
 30
0.
 11
43.173072814941
 21
179.11804199219
 31
0.
  0
LINE
  8
HILFSLINIE
 10
37.173072814941
 20
185.11804199219
 30
0.
 11
37.173072814941
 21
861.11795043945
 31
0.
  0
ARC
  8
HILFSLINIE
 10
631.17253494263
 20
-11191.878692627
 30
0.
 40
12019.999023438
 50
87.825832062113
 51
92.147311758459
  0
ARC
  8
HILFSLINIE
 10
631.17253494263
 20
-11191.878692627
 30
0.
 40
11992.999023438
 50
87.825832581019
 51
92.147313160195
  0
ARC
  8
HILFSLINIE
 10
178.96126174927
 20
719.53793334961
 30
0.
 40
99.999984741211
 50
92.174229663801
 51
178.37378975195
  0
ARC
  8
HILFSLINIE
 10
178.96126174927
 20
326.69812011719
 30
0.
 40
99.999984741211
 50
181.62621024805
 51
267.82577166293
  0
ARC
  8
HILFSLINIE
 10
178.96126174927
 20
326.69812011719
 30
0.
 40
72.999992370605
 50
181.62515312695
 51
267.82583639101
  0
ARC
  8
HILFSLINIE
 10
178.96126174927
 20
719.53793334961
 30
0.
 40
72.999992370605
 50
92.174165426377
 51
178.37484687305
  0
ARC
  8
HILFSLINIE
 10
7096.1715583801
 20
523.11801147461
 30
0.
 40
7019.9990234375
 50
178.3734805069
 51
181.62651924412
  0
ARC
  8
HILFSLINIE
 10
7096.1715583801
 20
523.11801147461
 30
0.
 40
6992.9990234375
 50
178.37349035707
 51
181.62650939122
  0
ARC
  8
HILFSLINIE
 10
631.17253494263
 20
12238.116424561
 30
0.
 40
12019.999023438
 50
267.82583687015
 51
271.27452117362
  0
ARC
  8
HILFSLINIE
 10
631.17253494263
 20
12238.116424561
 30
0.
 40
11992.999023438
 50
267.82583739435
 51
271.27568271841
  0
ARC
  8
HILFSLINIE
 10
1083.3848152161
 20
719.53793334961
 30
0.
 40
72.999992370605
 50
1.6251502399138
 51
87.825930314755
  0
ARC
  8
HILFSLINIE
 10
1083.3848152161
 20
719.53793334961
 30
0.
 40
99.999984741211
 50
1.6262099999463
 51
87.825840227221
  0
ARC
  8
HILFSLINIE
 10
-5833.8260002136
 20
523.11801147461
 30
0.
 40
7019.9990234375
 50
359.72139800727
 51
1.6265194983976
  0
ARC
  8
HILFSLINIE
 10
-5833.8260002136
 20
523.11801147461
 30
0.
 40
6992.9990234375
 50
359.7214265055
 51
1.6265096305116
  0
ARC
  8
HILFSLINIE
 10
3166.0663337708
 20
479.35629272461
 30
0.
 40
1999.9997558594
 50
179.7203462156
 51
186.60075133085
  0
ARC
  8
HILFSLINIE
 10
3166.0663337708
 20
479.35629272461
 30
0.
 40
1979.9997558594
 50
179.71752140631
 51
183.98559068267
  0
ARC
  8
HILFSLINIE
 10
907.9354133606
 20
-1758.8856506348
 30
0.
 40
1999.9997558594
 50
83.399276711402
 51
90.279674770758
  0
ARC
  8
HILFSLINIE
 10
907.9354133606
 20
-1758.8856506348
 30
0.
 40
1979.9997558594
 50
86.014410075526
 51
90.282499789897
  0
ARC
  8
HILFSLINIE
 10
907.9354133606
 20
-1758.8856506348
 30
0.
 40
2006.9997558594
 50
85.864419811773
 51
90.278699314125
  0
ARC
  8
HILFSLINIE
 10
3166.0663337708
 20
479.35629272461
 30
0.
 40
2006.9997558594
 50
179.72132160326
 51
184.13562903772
  0
ARC
  8
HILFSLINIE
 10
43.173072814941
 20
861.11795043945
 30
0.
 40
5.9999990463257
 50
90.
 51
180.
  0
ARC
  8
HILFSLINIE
 10
1219.1729011536
 20
861.11795043945
 30
0.
 40
5.9999990463257
 50
0.
 51
90.
  0
ARC
  8
HILFSLINIE
 10
1219.1729011536
 20
185.11804199219
 30
0.
 40
5.9999990463257
 50
270.
 51
0.
  0
ARC
  8
HILFSLINIE
 10
43.173072814941
 20
185.11804199219
 30
0.
 40
5.9999990463257
 50
180.
 51
270.
  0
CIRCLE
  8
HILFSLINIE
 10
231.17305374146
 20
673.11801147461
 30
0.
 40
64.999992370605
  0
LINE
  8
MITTELLINIE
 10
631.17302322388
 20
173.11804199219
 30
0.
 11
631.17302322388
 21
873.11795043945
 31
0.
  0
LINE
  8
MITTELLINIE
 10
322.17305374146
 20
673.11801147461
 30
0.
 11
148.07307815552
 21
673.11801147461
 31
0.
  0
LINE
  8
MITTELLINIE
 10
31.173072814941
 20
523.11801147461
 30
0.
 11
1231.1729011536
 21
523.11801147461
 31
0.
  0
LINE
  8
MITTELLINIE
 10
231.17305374146
 20
582.11801147461
 30
0.
 11
231.17305374146
 21
764.11795043945
 31
0.
  0
LINE
  8
MITTELLINIE
 10
228.16597366333
 20
1293.5885925293
 30
0.
 11
228.16597366333
 21
1364.2467956543
 31
0.
  0
LINE
  8
MITTELLINIE
 10
1599.6658210754
 20
1293.5885925293
 30
0.
 11
1599.6658210754
 21
1364.2467956543
 31
0.
  0
ARC
  8
SICHTBARE_KANTE
 10
-5833.8260002136
 20
523.11801147461
 30
0.
 40
6999.9990234375
 50
359.72140133226
 51
1.6265139906363
  0
ARC
  8
SICHTBARE_KANTE
 10
43.173072814941
 20
185.11804199219
 30
0.
 40
11.999998092651
 50
180.
 51
270.
  0
ARC
  8
SICHTBARE_KANTE
 10
43.173072814941
 20
861.11795043945
 30
0.
 40
11.999998092651
 50
90.
 51
180.
  0
ARC
  8
SICHTBARE_KANTE
 10
1219.1729011536
 20
185.11804199219
 30
0.
 40
11.999998092651
 50
270.
 51
0.
  0
ARC
  8
SICHTBARE_KANTE
 10
178.96126174927
 20
719.53793334961
 30
0.
 40
79.999992370605
 50
92.174180681907
 51
178.37434899396
  0
ARC
  8
SICHTBARE_KANTE
 10
178.96126174927
 20
326.69812011719
 30
0.
 40
79.999992370605
 50
181.62565100604
 51
267.82582097644
  0
ARC
  8
SICHTBARE_KANTE
 10
1219.1729011536
 20
861.11795043945
 30
0.
 40
11.999998092651
 50
0.
 51
90.
  0
ARC
  8
SICHTBARE_KANTE
 10
1083.3848152161
 20
719.53793334961
 30
0.
 40
79.999992370605
 50
1.6256506960127
 51
87.82590668061
  0
ARC
  8
SICHTBARE_KANTE
 10
631.17253494263
 20
12238.116424561
 30
0.
 40
11999.999023438
 50
267.82583694086
 51
271.27493844992
  0
ARC
  8
SICHTBARE_KANTE
 10
631.17253494263
 20
-11191.878692627
 30
0.
 40
11999.999023438
 50
87.825832852841
 51
92.17416356876
  0
ARC
  8
SICHTBARE_KANTE
 10
7096.1715583801
 20
523.11801147461
 30
0.
 40
6999.9990234375
 50
178.37348602
 51
181.62651373031
  0
ARC
  8
SICHTBARE_KANTE
 10
1222.1729011536
 20
1343.1178894043
 30
0.
 40
5.9999990463257
 50
0.
 51
92.803721789658
  0
ARC
  8
SICHTBARE_KANTE
 10
1222.1729011536
 20
1323.1178894043
 30
0.
 40
5.9999990463257
 50
270.
 51
0.
  0
ARC
  8
SICHTBARE_KANTE
 10
34.173072814941
 20
1343.1178894043
 30
0.
 40
5.9999990463257
 50
87.196278210342
 51
180.
  0
ARC
  8
SICHTBARE_KANTE
 10
34.173072814941
 20
1323.1178894043
 30
0.
 40
5.9999990463257
 50
180.
 51
270.00116568562
  0
ARC
  8
SICHTBARE_KANTE
 10
276.72957229614
 20
1315.7194519043
 30
0.
 40
6.9999990463257
 50
270.
 51
333.46801404435
  0
ARC
  8
SICHTBARE_KANTE
 10
179.60225296021
 20
1315.7194519043
 30
0.
 40
6.9999990463257
 50
206.53243227411
 51
269.9960033636
  0
ARC
  8
SICHTBARE_KANTE
 10
159.91731643677
 20
1305.8952331543
 30
0.
 40
14.999997138977
 50
26.518341764891
 51
48.432985296705
  0
ARC
  8
SICHTBARE_KANTE
 10
296.41450881958
 20
1305.8952331543
 30
0.
 40
14.999997138977
 50
131.56666584281
 51
153.48145004952
  0
ARC
  8
SICHTBARE_KANTE
 10
2093.6727790833
 20
1343.1178894043
 30
0.
 40
5.9999990463257
 50
0.
 51
92.799064120281
  0
ARC
  8
SICHTBARE_KANTE
 10
2093.6727790833
 20
1323.1178894043
 30
0.
 40
5.9999990463257
 50
270.
 51
0.
  0
ARC
  8
SICHTBARE_KANTE
 10
1405.6729011536
 20
1343.1178894043
 30
0.
 40
5.9999990463257
 50
87.196278210342
 51
180.
  0
ARC
  8
SICHTBARE_KANTE
 10
1405.6729011536
 20
1323.1178894043
 30
0.
 40
5.9999990463257
 50
180.
 51
270.
  0
ARC
  8
SICHTBARE_KANTE
 10
1648.2295417786
 20
1315.7194519043
 30
0.
 40
6.9999990463257
 50
270.
 51
333.46801404435
  0
ARC
  8
SICHTBARE_KANTE
 10
1551.1021003723
 20
1315.7194519043
 30
0.
 40
6.9999990463257
 50
206.53198595565
 51
269.9960033636
  0
ARC
  8
SICHTBARE_KANTE
 10
1531.4170417786
 20
1305.8952331543
 30
0.
 40
14.999997138977
 50
26.518341764891
 51
48.432985296705
  0
ARC
  8
SICHTBARE_KANTE
 10
1667.9143562317
 20
1305.8952331543
 30
0.
 40
14.999997138977
 50
131.56701470329
 51
153.48165823511
  0
CIRCLE
  8
SICHTBARE_KANTE
 10
231.17305374146
 20
673.11801147461
 30
0.
 40
44.999996185303
  0
LINE
  8
SICHTBARE_KANTE
 10
1231.1729011536
 20
861.11795043945
 30
0.
 11
1231.1729011536
 21
185.11804199219
 31
0.
  0
LINE
  8
SICHTBARE_KANTE
 10
43.173072814941
 20
173.11804199219
 30
0.
 11
1219.1729011536
 21
173.11804199219
 31
0.
  0
LINE
  8
SICHTBARE_KANTE
 10
31.173072814941
 20
185.11804199219
 30
0.
 11
31.173072814941
 21
861.11795043945
 31
0.
  0
LINE
  8
SICHTBARE_KANTE
 10
43.173072814941
 20
873.11795043945
 30
0.
 11
1219.1729011536
 21
873.11795043945
 31
0.
  0
LINE
  8
SICHTBARE_KANTE
 10
34.681251525879
 20
1349.1178894043
 30
0.
 11
1221.6243171692
 21
1349.1178894043
 31
0.
  0
LINE
  8
SICHTBARE_KANTE
 10
34.173194885254
 20
1317.1178894043
 30
0.
 11
1222.1729011536
 21
1317.1178894043
 31
0.
  0
LINE
  8
SICHTBARE_KANTE
 10
1228.1729011536
 20
1323.1178894043
 30
0.
 11
1228.1729011536
 21
1343.1178894043
 31
0.
  0
LINE
  8
SICHTBARE_KANTE
 10
28.173072814941
 20
1323.1178894043
 30
0.
 11
28.173072814941
 21
1343.1178894043
 31
0.
  0
LINE
  8
SICHTBARE_KANTE
 10
179.60176467896
 20
1308.7194519043
 30
0.
 11
276.72957229614
 21
1308.7194519043
 31
0.
  0
LINE
  8
SICHTBARE_KANTE
 10
1406.1812019348
 20
1349.1178894043
 30
0.
 11
2093.6727790833
 21
1349.1178894043
 31
0.
  0
LINE
  8
SICHTBARE_KANTE
 10
1405.6729011536
 20
1317.1178894043
 30
0.
 11
2093.6727790833
 21
1317.1178894043
 31
0.
  0
LINE
  8
SICHTBARE_KANTE
 10
2099.6727790833
 20
1323.1178894043
 30
0.
 11
2099.6727790833
 21
1343.1178894043
 31
0.
  0
LINE
  8
SICHTBARE_KANTE
 10
1399.6729011536
 20
1323.1178894043
 30
0.
 11
1399.6729011536
 21
1343.1178894043
 31
0.
  0
LINE
  8
SICHTBARE_KANTE
 10
1551.1016120911
 20
1308.7194519043
 30
0.
 11
1648.2295417786
 21
1308.7194519043
 31
0.
  0
TEXT
  8
2D-TEXT
 10
1977.5969734192
 20
933.64724731445
 30
0.
 40
99.999992370605
 50
0.
 51
360.
 41
.74666665242513
  1
SUPERPLAN
  7
DIN-EN-ISO-3098
 72
5
 11
2484.2635688782
 21
933.64724731445
 31
0.
  0
TEXT
  8
2D-TEXT
 10
2640.8300056458
 20
554.50277709961
 30
0.
 40
66.666664123535
 50
0.
 51
360.
 41
.91000000801086
  1
27
  7
DIN-EN-ISO-3098
 72
5
 11
2710.1633338928
 21
554.50277709961
 31
0.
  0
TEXT
  8
2D-TEXT
 10
2307.4960212708
 20
554.50277709961
 30
0.
 40
66.666664123535
 50
0.
 51
360.
 41
.91000000801086
  1
1200
  7
DIN-EN-ISO-3098
 72
5
 11
2452.6626930237
 21
554.50277709961
 31
0.
  0
TEXT
  8
2D-TEXT
 10
1974.1631355286
 20
554.50473022461
 30
0.
 40
66.666664123535
 50
0.
 51
360.
 41
.91000000801086
  1
700
  7
DIN-EN-ISO-3098
 72
5
 11
2086.8297996521
 21
554.50473022461
 31
0.
  0
TEXT
  8
2D-TEXT
 10
2640.8300056458
 20
754.50271606445
 30
0.
 40
66.666664123535
 50
0.
 51
360.
 41
.91000000801086
  1
Tiefe
  7
DIN-EN-ISO-3098
 72
5
 11
2807.6633491516
 21
754.50271606445
 31
0.
  0
TEXT
  8
2D-TEXT
 10
2307.4969978333
 20
754.50271606445
 30
0.
 40
66.666664123535
 50
0.
 51
360.
 41
.91000000801086
  1
Breite
  7
DIN-EN-ISO-3098
 72
5
 11
2506.2670021057
 21
754.50271606445
 31
0.
  0
TEXT
  8
2D-TEXT
 10
1974.1641120911
 20
754.50466918945
 30
0.
 40
66.666664123535
 50
0.
 51
360.
 41
.91000000801086
  1
Laenge
  7
DIN-EN-ISO-3098
 72
5
 11
2216.830783844
 21
754.50466918945
 31
0.
  0
TEXT
  8
2D-TEXT
 10
1640.8311042786
 20
754.50466918945
 30
0.
 40
66.666664123535
 50
0.
 51
360.
 41
.91000000801086
  1
Modell
  7
DIN-EN-ISO-3098
 72
5
 11
1848.8311195374
 21
754.50466918945
 31
0.
  0
TEXT
  8
2D-TEXT
 10
1640.8301277161
 20
554.50473022461
 30
0.
 40
66.666664123535
 50
0.
 51
360.
 41
.91000000801086
  1
401-1
  7
DIN-EN-ISO-3098
 72
5
 11
1814.1634559631
 21
554.50473022461
 31
0.
  0
ENDSEC
  0
EOF
