  0
SECTION
  2
HEADER
  9
$ACADVER
  1
AC1009
  9
$ANGBASE
 50
       0.000000
  9
$ANGDIR
 70
0
  9
$ATTDIA
 70
0
  9
$ATTMODE
 70
0
  9
$ATTREQ
 70
0
  9
$AUNITS
 70
0
  9
$AUPREC
 70
1
  9
$BLIPMODE
 70
1
  9
$CECOLOR
 62
256
  9
$CELTYPE
  6
BYLAYER
  9
$CHAMFERA
 40
       0.000000
  9
$CHAMFERB
 40
       0.000000
  9
$CLAYER
  8
0
  9
$COORDS
 70
1
  9
$DIMALT
 70
0
  9
$DIMALTD
 70
2
  9
$DIMALTF
 40
      25.400000
  9
$DIMAPOST
  1

  9
$DIMASO
 70
0
  9
$DIMASZ
 40
       3.500000
  9
$DIMBLK
  1

  9
$DIMBLK1
  1

  9
$DIMBLK2
  1

  9
$DIMCEN
 40
       1.500000
  9
$DIMCLRD
 70
0
  9
$DIMCLRE
 70
0
  9
$DIMCLRT
 70
0
  9
$DIMDLE
 40
       0.000000
  9
$DIMDLI
 40
       7.000000
  9
$DIMEXE
 40
       1.800000
  9
$DIMEXO
 40
       0.100000
  9
$DIMGAP
 40
       0.090000
  9
$DIMLFAC
 40
       1.000000
  9
$DIMLIM
 70
0
  9
$DIMPOST
  1

  9
$DIMRND
 40
       0.000000
  9
$DIMSAH
 70
0
  9
$DIMSCALE
 40
       1.000000
  9
$DIMSE1
 70
0
  9
$DIMSE2
 70
0
  9
$DIMSHO
 70
1
  9
$DIMSOXD
 70
0
  9
$DIMSTYLE
  2
*UNNAMED
  9
$DIMTAD
 70
1
  9
$DIMTFAC
 40
       1.000000
  9
$DIMTIH
 70
0
  9
$DIMTIX
 70
0
  9
$DIMTM
 40
       0.000000
  9
$DIMTOFL
 70
0
  9
$DIMTOH
 70
0
  9
$DIMTOL
 70
0
  9
$DIMTP
 40
       0.000000
  9
$DIMTSZ
 40
       0.000000
  9
$DIMTVP
 40
       0.000000
  9
$DIMTXT
 40
       3.500000
  9
$DIMZIN
 70
0
  9
$DRAGMODE
 70
2
  9
$DWGCODEPAGE
  3
iso8859-1
  9
$ELEVATION
 40
       0.000000
  9
$EXTMAX
 10
2520.4624023438
 20
1341.6109619141
 30
0.
  9
$EXTMIN
 10
-14.604736328125
 20
-14.604736328125
 30
0.
  9
$FILLETRAD
 40
       0.000000
  9
$FILLMODE
 70
1
  9
$HANDLING
 70
0
  9
$HANDSEED
  5
0
  9
$INSBASE
 10
       0.000000
 20
       0.000000
 30
       0.000000
  9
$LIMCHECK
 70
0
  9
$LIMMAX
 10
2520.4624023438
 20
1341.6109619141
  9
$LIMMIN
 10
-14.604736328125
 20
-14.604736328125
  9
$LTSCALE
 40
       1.000000
  9
$LUNITS
 70
2
  9
$LUPREC
 70
2
  9
$MAXACTVP
 70
16
  9
$MENU
  1
ACAD
  9
$MIRRTEXT
 70
0
  9
$ORTHOMODE
 70
0
  9
$OSMODE
 70
0
  9
$PDMODE
 70
0
  9
$PDSIZE
 40
       0.000000
  9
$PELEVATION
 40
       0.000000
  9
$PEXTMAX
 10
2520.4624023438
 20
1341.6109619141
 30
0.
  9
$PEXTMIN
 10
-14.604736328125
 20
-14.604736328125
 30
0.
  9
$PINSBASE
 10
       0.000000
 20
       0.000000
 30
       0.000000
  9
$PLIMCHECK
 70
0
  9
$PLIMMAX
 10
2520.4624023438
 20
1341.6109619141
  9
$PLIMMIN
 10
-14.604736328125
 20
-14.604736328125
  9
$PLINEGEN
 70
0
  9
$PLINEWID
 40
       0.000000
  9
$PSLTSCALE
 70
1
  9
$PUCSNAME
  2

  9
$PUCSORG
 10
       0.000000
 20
       0.000000
 30
       0.000000
  9
$PUCSXDIR
 10
       1.000000
 20
       0.000000
 30
       0.000000
  9
$PUCSYDIR
 10
       0.000000
 20
       1.000000
 30
       0.000000
  9
$QTEXTMODE
 70
0
  9
$REGENMODE
 70
1
  9
$SHADEDGE
 70
3
  9
$SHADEDIF
 70
70
  9
$SKETCHINC
 40
       1.000000
  9
$SKPOLY
 70
0
  9
$SPLFRAME
 70
0
  9
$SPLINESEGS
 70
8
  9
$SPLINETYPE
 70
6
  9
$SURFTAB1
 70
6
  9
$SURFTAB2
 70
6
  9
$SURFTYPE
 70
6
  9
$SURFU
 70
6
  9
$SURFV
 70
6
  9
$TDCREATE
 40
2457323.4541667
  9
$TDINDWG
 40
       0.000000
  9
$TDUPDATE
 40
2457323.4541667
  9
$TDUSRTIMER
 40
       0.000000
  9
$TEXTSIZE
 40
       3.500000
  9
$TEXTSTYLE
  7
STANDARD
  9
$THICKNESS
 40
       0.000000
  9
$TILEMODE
 70
1
  9
$TRACEWID
 40
       1.000000
  9
$TREEDEPTH
 70
-3020
  9
$UCSNAME
  2

  9
$UCSORG
 10
       0.000000
 20
       0.000000
 30
       0.000000
  9
$UCSXDIR
 10
       1.000000
 20
       0.000000
 30
       0.000000
  9
$UCSYDIR
 10
       0.000000
 20
       1.000000
 30
       0.000000
  9
$UNITMODE
 70
0
  9
$USERI1
 70
0
  9
$USERI2
 70
0
  9
$USERI3
 70
0
  9
$USERI4
 70
0
  9
$USERI5
 70
0
  9
$USERR1
 40
       0.000000
  9
$USERR2
 40
       0.000000
  9
$USERR3
 40
       0.000000
  9
$USERR4
 40
       0.000000
  9
$USERR5
 40
       0.000000
  9
$USRTIMER
 70
0
  9
$VISRETAIN
 70
0
  9
$WORLDVIEW
 70
1
  0
ENDSEC
  0
SECTION
  2
TABLES
  0
TABLE
  2
LTYPE
 70
167
  0
LTYPE
  2
AUSGEZOGEN
 70
0
  3
________________________________
 72
65
 73
2
 40
16.
 49
16.
 49
0.
  0
LTYPE
  2
VERDECKTE_KANTE
 70
0
  3
__________________________
 72
65
 73
2
 40
5.
 49
4.063
 49
-0.938
  0
LTYPE
  2
HILFSLINIE
 70
0
  3
________________________________
 72
65
 73
2
 40
16.
 49
16.
 49
0.
  0
LTYPE
  2
BRUCHLINIE
 70
0
  3
________________________________
 72
65
 73
2
 40
16.
 49
16.
 49
0.
  0
LTYPE
  2
MITTELLINIE
 70
0
  3
_______________________   ___
 72
65
 73
4
 40
13.
 49
9.34
 49
-1.22
 49
1.22
 49
-1.22
  0
LTYPE
  2
SCHNITTLINIE
 70
0
  3
_______________________   ___
 72
65
 73
4
 40
13.
 49
9.34
 49
-1.22
 49
1.22
 49
-1.22
  0
LTYPE
  2
SCHWERLINIE
 70
0
  3
______________________  __  __
 72
65
 73
6
 40
15.
 49
10.31
 49
-0.94
 49
0.94
 49
-0.94
 49
0.94
 49
-0.94
  0
LTYPE
  2
ENTWURFSLINIE
 70
0
  3
__      __      __      __
 72
65
 73
8
 40
16.
 49
1.
 49
-3.
 49
1.
 49
-3.
 49
1.
 49
-3.
 49
1.
 49
-3.
  0
LTYPE
  2
SONDERLINIE1
 70
0
  3
________________________________
 72
65
 73
2
 40
16.
 49
16.
 49
0.
  0
LTYPE
  2
SONDERLINIE2
 70
0
  3
______________________  __  __
 72
65
 73
6
 40
15.
 49
10.31
 49
-0.94
 49
0.94
 49
-0.94
 49
0.94
 49
-0.94
  0
LTYPE
  2
SONDERLINIE3
 70
0
  3
__________________  __  __  __
 72
65
 73
8
 40
16.
 49
9.
 49
-1.
 49
1.
 49
-1.
 49
1.
 49
-1.
 49
1.
 49
-1.
  0
LTYPE
  2
SONDERLINIE4
 70
0
  3
__________________  __  __  __
 72
65
 73
8
 40
16.
 49
9.
 49
-1.
 49
1.
 49
-1.
 49
1.
 49
-1.
 49
1.
 49
-1.
  0
LTYPE
  2
SONDERLINIE5
 70
0
  3
______________  __  __  __  __
 72
65
 73
10
 40
16.
 49
7.
 49
-1.
 49
1.
 49
-1.
 49
1.
 49
-1.
 49
1.
 49
-1.
 49
1.
 49
-1.
  0
LTYPE
  2
SONDERLINIE6
 70
0
  3
______________  __  __  __  __
 72
65
 73
10
 40
16.
 49
7.
 49
-1.
 49
1.
 49
-1.
 49
1.
 49
-1.
 49
1.
 49
-1.
 49
1.
 49
-1.
  0
LTYPE
  2
SONDERLINIE7
 70
0
  3
__________  __  __  __  __  __
 72
65
 73
12
 40
16.
 49
5.
 49
-1.
 49
1.
 49
-1.
 49
1.
 49
-1.
 49
1.
 49
-1.
 49
1.
 49
-1.
 49
1.
 49
-1.
  0
LTYPE
  2
SONDERLINIE8
 70
0
  3
__________  __  __  __  __  __
 72
65
 73
12
 40
16.
 49
5.
 49
-1.
 49
1.
 49
-1.
 49
1.
 49
-1.
 49
1.
 49
-1.
 49
1.
 49
-1.
 49
1.
 49
-1.
  0
LTYPE
  2
HEIZUNG-VORLAUF
 70
0
  3
 
 72
65
 73
2
 40
16.
 49
16.
 49
0.
  0
LTYPE
  2
HEIZUNG-RUECKLAUF
 70
0
  3
 
 72
65
 73
2
 40
5.
 49
4.063
 49
-0.938
  0
LTYPE
  2
TRINKWASSER-KALT
 70
0
  3
 
 72
65
 73
2
 40
16.
 49
16.
 49
0.
  0
LTYPE
  2
TRINKWASSER-WARM
 70
0
  3
 
 72
65
 73
2
 40
5.
 49
4.063
 49
-0.938
  0
LTYPE
  2
TRINKWASSER-ZIRKULATION
 70
0
  3
 
 72
65
 73
4
 40
13.
 49
9.34
 49
-1.22
 49
1.22
 49
-1.22
  0
LTYPE
  2
SANITAER-SCHMUTZWASSER
 70
0
  3
 
 72
65
 73
2
 40
16.
 49
16.
 49
0.
  0
LTYPE
  2
SANITAER-REGENWASSER
 70
0
  3
 
 72
65
 73
2
 40
5.
 49
4.063
 49
-0.938
  0
LTYPE
  2
SANITAER-MISCHWASSER
 70
0
  3
 
 72
65
 73
4
 40
13.
 49
9.34
 49
-1.22
 49
1.22
 49
-1.22
  0
LTYPE
  2
SANITAER-ENTLUEFTUNG
 70
0
  3
 
 72
65
 73
2
 40
5.
 49
4.063
 49
-0.938
  0
LTYPE
  2
SPRINKLER
 70
0
  3
 
 72
65
 73
2
 40
16.
 49
16.
 49
0.
  0
LTYPE
  2
WERKWASSER
 70
0
  3
 
 72
65
 73
2
 40
16.
 49
16.
 49
0.
  0
LTYPE
  2
KUEHLWASSER-VL
 70
0
  3
 
 72
65
 73
2
 40
16.
 49
16.
 49
0.
  0
LTYPE
  2
KUEHLWASSER-RL-D
 70
0
  3
 
 72
65
 73
2
 40
5.
 49
4.063
 49
-0.938
  0
LTYPE
  2
KUEHLWASSER-RL-DI
 70
0
  3
 
 72
65
 73
2
 40
5.
 49
4.063
 49
-0.938
  0
LTYPE
  2
KALTWASSER-KAELTEANL--VL
 70
0
  3
 
 72
65
 73
2
 40
16.
 49
16.
 49
0.
  0
LTYPE
  2
KALTWASSER-KAELTEANL--RL
 70
0
  3
 
 72
65
 73
2
 40
5.
 49
4.063
 49
-0.938
  0
LTYPE
  2
SCHLEIFEMULSION
 70
0
  3
 
 72
65
 73
2
 40
16.
 49
16.
 49
0.
  0
LTYPE
  2
BOHREMULSION
 70
0
  3
 
 72
65
 73
2
 40
16.
 49
16.
 49
0.
  0
LTYPE
  2
SCHNEIDEMULSION
 70
0
  3
 
 72
65
 73
2
 40
16.
 49
16.
 49
0.
  0
LTYPE
  2
DRUCKLUFT-HAUPTNETZ
 70
0
  3
 
 72
65
 73
2
 40
16.
 49
16.
 49
0.
  0
LTYPE
  2
DRUCKLUFT-HOCHDRUCKNETZ
 70
0
  3
 
 72
65
 73
2
 40
16.
 49
16.
 49
0.
  0
LTYPE
  2
DRUCKLUFT-NIEDERDRUCKNETZ
 70
0
  3
 
 72
65
 73
2
 40
16.
 49
16.
 49
0.
  0
LTYPE
  2
MISCHWASSER-DRUCK
 70
0
  3
 
 72
65
 73
2
 40
16.
 49
16.
 49
0.
  0
LTYPE
  2
MISCHWASSER-KANAL
 70
0
  3
 
 72
65
 73
2
 40
16.
 49
16.
 49
0.
  0
LTYPE
  2
OELHALTIGES-ABWASSER-DRUCK
 70
0
  3
 
 72
65
 73
2
 40
16.
 49
16.
 49
0.
  0
LTYPE
  2
OELHALTIGES-ABWASSER-KANAL
 70
0
  3
 
 72
65
 73
2
 40
16.
 49
16.
 49
0.
  0
LTYPE
  2
REGENWASSER-DRUCK
 70
0
  3
 
 72
65
 73
2
 40
16.
 49
16.
 49
0.
  0
LTYPE
  2
REGENWASSER-KANAL
 70
0
  3
 
 72
65
 73
2
 40
16.
 49
16.
 49
0.
  0
LTYPE
  2
SCHMUTZWASSER-DRUCK
 70
0
  3
 
 72
65
 73
2
 40
16.
 49
16.
 49
0.
  0
LTYPE
  2
SCHMUTZWASSER-KANAL
 70
0
  3
 
 72
65
 73
2
 40
16.
 49
16.
 49
0.
  0
LTYPE
  2
ALTEMULSION
 70
0
  3
 
 72
65
 73
2
 40
16.
 49
16.
 49
0.
  0
LTYPE
  2
ALTWASCHWASSER
 70
0
  3
 
 72
65
 73
2
 40
16.
 49
16.
 49
0.
  0
LTYPE
  2
CHROMHALTIGES-SPUELWASSER
 70
0
  3
 
 72
65
 73
2
 40
16.
 49
16.
 49
0.
  0
LTYPE
  2
CYANIDHALTIGES-SPUELWASSER
 70
0
  3
 
 72
65
 73
2
 40
16.
 49
16.
 49
0.
  0
LTYPE
  2
GEKLAERTES-ABWASSER
 70
0
  3
 
 72
65
 73
2
 40
16.
 49
16.
 49
0.
  0
LTYPE
  2
NITRITHALTIGES-SPUELWASSER
 70
0
  3
 
 72
65
 73
2
 40
16.
 49
16.
 49
0.
  0
LTYPE
  2
SAURES-ALKALISCHES-ELUAT
 70
0
  3
 
 72
65
 73
2
 40
16.
 49
16.
 49
0.
  0
LTYPE
  2
SAURES-ALKALISCHES-SPUELWASSER
 70
0
  3
 
 72
65
 73
2
 40
16.
 49
16.
 49
0.
  0
LTYPE
  2
AMIDASULFONSAEURE
 70
0
  3
 
 72
65
 73
2
 40
16.
 49
16.
 49
0.
  0
LTYPE
  2
CHROMHALTIGES-KONZENTRAT
 70
0
  3
 
 72
65
 73
2
 40
16.
 49
16.
 49
0.
  0
LTYPE
  2
CYANIDHALTIGES-KONZENTRAT
 70
0
  3
 
 72
65
 73
2
 40
16.
 49
16.
 49
0.
  0
LTYPE
  2
ELEKTROLYT
 70
0
  3
 
 72
65
 73
2
 40
16.
 49
16.
 49
0.
  0
LTYPE
  2
NATRIUMBISULFIT
 70
0
  3
 
 72
65
 73
2
 40
16.
 49
16.
 49
0.
  0
LTYPE
  2
NATRIUMHYPOCHLORIT
 70
0
  3
 
 72
65
 73
2
 40
16.
 49
16.
 49
0.
  0
LTYPE
  2
NATRONLAUGE
 70
0
  3
 
 72
65
 73
2
 40
16.
 49
16.
 49
0.
  0
LTYPE
  2
NITRITHALTIGES-KONZENTRAT
 70
0
  3
 
 72
65
 73
2
 40
16.
 49
16.
 49
0.
  0
LTYPE
  2
PHOSPHORSAEURE
 70
0
  3
 
 72
65
 73
2
 40
16.
 49
16.
 49
0.
  0
LTYPE
  2
SALPETERSAEURE
 70
0
  3
 
 72
65
 73
2
 40
16.
 49
16.
 49
0.
  0
LTYPE
  2
SALZSAEURE
 70
0
  3
 
 72
65
 73
2
 40
16.
 49
16.
 49
0.
  0
LTYPE
  2
SCHWEFELSAEURE
 70
0
  3
 
 72
65
 73
2
 40
16.
 49
16.
 49
0.
  0
LTYPE
  2
BETRIEBSWAERME-RL
 70
0
  3
 
 72
65
 73
2
 40
5.
 49
4.063
 49
-0.938
  0
LTYPE
  2
BETRIEBSWAERME-VL
 70
0
  3
 
 72
65
 73
2
 40
16.
 49
16.
 49
0.
  0
LTYPE
  2
WARMWASSER-VL
 70
0
  3
 
 72
65
 73
2
 40
16.
 49
16.
 49
0.
  0
LTYPE
  2
WARMWASSER-ZIRKULATION
 70
0
  3
 
 72
65
 73
4
 40
13.
 49
9.34
 49
-1.22
 49
1.22
 49
-1.22
  0
LTYPE
  2
ROHWASSER
 70
0
  3
 
 72
65
 73
2
 40
16.
 49
16.
 49
0.
  0
LTYPE
  2
ARGON
 70
0
  3
 
 72
65
 73
2
 40
16.
 49
16.
 49
0.
  0
LTYPE
  2
CORGON
 70
0
  3
 
 72
65
 73
2
 40
16.
 49
16.
 49
0.
  0
LTYPE
  2
KOHLENDIOXID
 70
0
  3
 
 72
65
 73
2
 40
16.
 49
16.
 49
0.
  0
LTYPE
  2
STICKSTOFF
 70
0
  3
 
 72
65
 73
2
 40
16.
 49
16.
 49
0.
  0
LTYPE
  2
AZETYLEN
 70
0
  3
 
 72
65
 73
2
 40
16.
 49
16.
 49
0.
  0
LTYPE
  2
ERDGAS
 70
0
  3
 
 72
65
 73
2
 40
16.
 49
16.
 49
0.
  0
LTYPE
  2
SAUERSTOFF--TECHNISCH-REIN
 70
0
  3
 
 72
65
 73
2
 40
16.
 49
16.
 49
0.
  0
LTYPE
  2
TRAEGERGAS
 70
0
  3
 
 72
65
 73
2
 40
16.
 49
16.
 49
0.
  0
LTYPE
  2
WASSERSTOFF
 70
0
  3
 
 72
65
 73
2
 40
16.
 49
16.
 49
0.
  0
LTYPE
  2
KRAFTSTOFF-GK-A-I-D
 70
0
  3
 
 72
65
 73
2
 40
16.
 49
16.
 49
0.
  0
LTYPE
  2
KRAFTSTOFF-SONDER-D
 70
0
  3
 
 72
65
 73
2
 40
16.
 49
16.
 49
0.
  0
LTYPE
  2
ACHSOEL
 70
0
  3
 
 72
65
 73
2
 40
16.
 49
16.
 49
0.
  0
LTYPE
  2
ALTOEL
 70
0
  3
 
 72
65
 73
2
 40
16.
 49
16.
 49
0.
  0
LTYPE
  2
BOHROEL
 70
0
  3
 
 72
65
 73
2
 40
16.
 49
16.
 49
0.
  0
LTYPE
  2
ERODIEROEL
 70
0
  3
 
 72
65
 73
2
 40
16.
 49
16.
 49
0.
  0
LTYPE
  2
FETT
 70
0
  3
 
 72
65
 73
2
 40
16.
 49
16.
 49
0.
  0
LTYPE
  2
GETRIEBEOEL
 70
0
  3
 
 72
65
 73
2
 40
16.
 49
16.
 49
0.
  0
LTYPE
  2
HAERTEOEL
 70
0
  3
 
 72
65
 73
2
 40
16.
 49
16.
 49
0.
  0
LTYPE
  2
HONOEL
 70
0
  3
 
 72
65
 73
2
 40
16.
 49
16.
 49
0.
  0
LTYPE
  2
HYDRAULIKOEL
 70
0
  3
 
 72
65
 73
2
 40
16.
 49
16.
 49
0.
  0
LTYPE
  2
MOTOROEL
 70
0
  3
 
 72
65
 73
2
 40
16.
 49
16.
 49
0.
  0
LTYPE
  2
NORMALSPUELOEL
 70
0
  3
 
 72
65
 73
2
 40
16.
 49
16.
 49
0.
  0
LTYPE
  2
RAEUMOEL
 70
0
  3
 
 72
65
 73
2
 40
16.
 49
16.
 49
0.
  0
LTYPE
  2
SCHLEIFOEL
 70
0
  3
 
 72
65
 73
2
 40
16.
 49
16.
 49
0.
  0
LTYPE
  2
SCHNEIDOEL
 70
0
  3
 
 72
65
 73
2
 40
16.
 49
16.
 49
0.
  0
LTYPE
  2
SONDERSPUELOEL
 70
0
  3
 
 72
65
 73
2
 40
16.
 49
16.
 49
0.
  0
LTYPE
  2
ZIEHOEL
 70
0
  3
 
 72
65
 73
2
 40
16.
 49
16.
 49
0.
  0
LTYPE
  2
MONTAGEOEL
 70
0
  3
 
 72
65
 73
2
 40
16.
 49
16.
 49
0.
  0
LTYPE
  2
MONTAGE-GLEITOEL
 70
0
  3
 
 72
65
 73
2
 40
16.
 49
16.
 49
0.
  0
LTYPE
  2
SPUELOEL
 70
0
  3
 
 72
65
 73
2
 40
16.
 49
16.
 49
0.
  0
LTYPE
  2
TIEFBOHROEL
 70
0
  3
 
 72
65
 73
2
 40
16.
 49
16.
 49
0.
  0
LTYPE
  2
AMIN
 70
0
  3
 
 72
65
 73
2
 40
16.
 49
16.
 49
0.
  0
LTYPE
  2
HAERTER
 70
0
  3
 
 72
65
 73
2
 40
16.
 49
16.
 49
0.
  0
LTYPE
  2
HARZ
 70
0
  3
 
 72
65
 73
2
 40
16.
 49
16.
 49
0.
  0
LTYPE
  2
LOESEMITTEL
 70
0
  3
 
 72
65
 73
2
 40
16.
 49
16.
 49
0.
  0
LTYPE
  2
LACK
 70
0
  3
 
 72
65
 73
2
 40
16.
 49
16.
 49
0.
  0
LTYPE
  2
WASCHWASSER
 70
0
  3
 
 72
65
 73
2
 40
16.
 49
16.
 49
0.
  0
LTYPE
  2
GLEITSCHLEIFWASSER
 70
0
  3
 
 72
65
 73
2
 40
16.
 49
16.
 49
0.
  0
LTYPE
  2
VERDUENNUNG
 70
0
  3
 
 72
65
 73
2
 40
16.
 49
16.
 49
0.
  0
LTYPE
  2
KUEHLDECKEN-VORLAUF
 70
0
  3
 
 72
65
 73
2
 40
16.
 49
16.
 49
0.
  0
LTYPE
  2
KUEHLDECKEN-RUECKLAUF
 70
0
  3
 
 72
65
 73
2
 40
5.
 49
4.063
 49
-0.938
  0
LTYPE
  2
KONDENSAT
 70
0
  3
 
 72
65
 73
2
 40
16.
 49
16.
 49
0.
  0
LTYPE
  2
KONDENSAT-REINDAMPF
 70
0
  3
 
 72
65
 73
2
 40
16.
 49
16.
 49
0.
  0
LTYPE
  2
KONDENSAT-HOCHDRUCK
 70
0
  3
 
 72
65
 73
2
 40
16.
 49
16.
 49
0.
  0
LTYPE
  2
DAMPF
 70
0
  3
 
 72
65
 73
2
 40
16.
 49
16.
 49
0.
  0
LTYPE
  2
REINDAMPF
 70
0
  3
 
 72
65
 73
2
 40
16.
 49
16.
 49
0.
  0
LTYPE
  2
DAMPF-HOCHDRUCK
 70
0
  3
 
 72
65
 73
2
 40
16.
 49
16.
 49
0.
  0
LTYPE
  2
KLIMA-ZENTRALE
 70
0
  3
 
 72
65
 73
2
 40
16.
 49
16.
 49
0.
  0
LTYPE
  2
KLIMA-AUSSENLUFT
 70
0
  3
 
 72
65
 73
4
 40
13.
 49
9.34
 49
-1.22
 49
1.22
 49
-1.22
  0
LTYPE
  2
KLIMA-ZULUFT-I
 70
0
  3
 
 72
65
 73
2
 40
16.
 49
16.
 49
0.
  0
LTYPE
  2
KLIMA-ZULUFT-II
 70
0
  3
 
 72
65
 73
2
 40
16.
 49
16.
 49
0.
  0
LTYPE
  2
KLIMA-ZULUFT-III
 70
0
  3
 
 72
65
 73
2
 40
16.
 49
16.
 49
0.
  0
LTYPE
  2
KLIMA-ZULUFT-IV
 70
0
  3
 
 72
65
 73
2
 40
16.
 49
16.
 49
0.
  0
LTYPE
  2
KLIMA-UMLUFT
 70
0
  3
 
 72
65
 73
2
 40
5.
 49
4.063
 49
-0.938
  0
LTYPE
  2
KLIMA-MISCHLUFT
 70
0
  3
 
 72
65
 73
6
 40
11.
 49
3.78
 49
-1.03
 49
3.78
 49
-1.03
 49
0.34
 49
-1.03
  0
LTYPE
  2
KLIMA-ABLUFT
 70
0
  3
 
 72
65
 73
2
 40
5.
 49
4.063
 49
-0.938
  0
LTYPE
  2
KLIMA-FORTLUFT
 70
0
  3
 
 72
65
 73
2
 40
5.
 49
4.063
 49
-0.938
  0
LTYPE
  2
ENTRAUCHUNG
 70
0
  3
 
 72
65
 73
2
 40
5.
 49
4.063
 49
-0.938
  0
LTYPE
  2
ELEKTRO-ZENTRALE
 70
0
  3
 
 72
65
 73
2
 40
16.
 49
16.
 49
0.
  0
LTYPE
  2
STROMSCHIENEN
 70
0
  3
 
 72
65
 73
2
 40
16.
 49
16.
 49
0.
  0
LTYPE
  2
ELEKTRO-LEITUNGSFUEHRUNG
 70
0
  3
 
 72
65
 73
2
 40
16.
 49
16.
 49
0.
  0
LTYPE
  2
ELEKTRO-KABELTRAEGER
 70
0
  3
 
 72
65
 73
2
 40
16.
 49
16.
 49
0.
  0
LTYPE
  2
INNENWAND
 70
0
  3
 
 72
65
 73
2
 40
16.
 49
16.
 49
0.
  0
LTYPE
  2
AUSSENWAND
 70
0
  3
 
 72
65
 73
2
 40
16.
 49
16.
 49
0.
  0
LTYPE
  2
ERDBERUEHRENDE-WAND
 70
0
  3
 
 72
65
 73
2
 40
16.
 49
16.
 49
0.
  0
LTYPE
  2
REINWASSER
 70
0
  3
 
 72
65
 73
2
 40
16.
 49
16.
 49
0.
  0
LTYPE
  2
MESSWASSER
 70
0
  3
 
 72
65
 73
2
 40
16.
 49
16.
 49
0.
  0
LTYPE
  2
SCHWALLWASSER
 70
0
  3
 
 72
65
 73
2
 40
16.
 49
16.
 49
0.
  0
LTYPE
  2
SCHLAMMWASSER
 70
0
  3
 
 72
65
 73
2
 40
16.
 49
16.
 49
0.
  0
LTYPE
  2
ERSTFILTRAT
 70
0
  3
 
 72
65
 73
2
 40
16.
 49
16.
 49
0.
  0
LTYPE
  2
FILTRAT
 70
0
  3
 
 72
65
 73
2
 40
16.
 49
16.
 49
0.
  0
LTYPE
  2
SOLE-FILTRAT
 70
0
  3
 
 72
65
 73
2
 40
16.
 49
16.
 49
0.
  0
LTYPE
  2
SOLE-REINWASSER
 70
0
  3
 
 72
65
 73
2
 40
16.
 49
16.
 49
0.
  0
LTYPE
  2
SOLE-ROHWASSER
 70
0
  3
 
 72
65
 73
2
 40
16.
 49
16.
 49
0.
  0
LTYPE
  2
SPUELWASSER
 70
0
  3
 
 72
65
 73
2
 40
16.
 49
16.
 49
0.
  0
LTYPE
  2
SPUELLUFT
 70
0
  3
 
 72
65
 73
2
 40
16.
 49
16.
 49
0.
  0
LTYPE
  2
CHLORLOESUNG
 70
0
  3
 
 72
65
 73
2
 40
16.
 49
16.
 49
0.
  0
LTYPE
  2
PH-LOESUNG
 70
0
  3
 
 72
65
 73
2
 40
16.
 49
16.
 49
0.
  0
LTYPE
  2
FLOCKUNGSMITTEL
 70
0
  3
 
 72
65
 73
2
 40
16.
 49
16.
 49
0.
  0
LTYPE
  2
SEEWASSER--KALT
 70
0
  3
 
 72
65
 73
2
 40
16.
 49
16.
 49
0.
  0
LTYPE
  2
SEEWASSER--WARM
 70
0
  3
 
 72
65
 73
2
 40
5.
 49
4.063
 49
-0.938
  0
LTYPE
  2
SEEWASSER--ZIRKULATION
 70
0
  3
 
 72
65
 73
4
 40
13.
 49
9.34
 49
-1.22
 49
1.22
 49
-1.22
  0
LTYPE
  2
LABORWASSER--KALT
 70
0
  3
 
 72
65
 73
2
 40
16.
 49
16.
 49
0.
  0
LTYPE
  2
LABORWASSER--WARM
 70
0
  3
 
 72
65
 73
2
 40
5.
 49
4.063
 49
-0.938
  0
LTYPE
  2
LABORWASSER--ZIRKULATION
 70
0
  3
 
 72
65
 73
4
 40
13.
 49
9.34
 49
-1.22
 49
1.22
 49
-1.22
  0
LTYPE
  2
WASSER-VOLL-ENTHAERTET-VL
 70
0
  3
 
 72
65
 73
2
 40
16.
 49
16.
 49
0.
  0
LTYPE
  2
WASSER-VOLL-ENTHAERTET-RL
 70
0
  3
 
 72
65
 73
2
 40
16.
 49
16.
 49
0.
  0
LTYPE
  2
PROZESSKUEHLWASSER-VL
 70
0
  3
 
 72
65
 73
2
 40
16.
 49
16.
 49
0.
  0
LTYPE
  2
PROZESSKUEHLWASSER-RL
 70
0
  3
 
 72
65
 73
2
 40
16.
 49
16.
 49
0.
  0
LTYPE
  2
EINBAURAUM
 70
0
  3
 
 72
65
 73
2
 40
16.
 49
16.
 49
0.
  0
LTYPE
  2
INNENRAUM
 70
0
  3
 
 72
65
 73
2
 40
16.
 49
16.
 49
0.
  0
LTYPE
  2
BODENPLATTE
 70
0
  3
 
 72
65
 73
2
 40
16.
 49
16.
 49
0.
  0
LTYPE
  2
DECKE
 70
0
  3
 
 72
65
 73
2
 40
16.
 49
16.
 49
0.
  0
LTYPE
  2
DACH
 70
0
  3
 
 72
65
 73
2
 40
16.
 49
16.
 49
0.
  0
LTYPE
  2
KAELTEMITTEL-VORLAUF
 70
0
  3
 
 72
65
 73
2
 40
16.
 49
16.
 49
0.
  0
LTYPE
  2
KAELTEMITTEL-RUECKLAUF
 70
0
  3
 
 72
65
 73
2
 40
16.
 49
16.
 49
0.
  0
ENDTAB
  0
TABLE
  2
LAYER
 70
25
  0
LAYER
  2
0
 62
7
  6
AUSGEZOGEN
 70
64
  0
LAYER
  2
SICHTBARE_KANTE
 62
7
  6
AUSGEZOGEN
 70
64
  0
LAYER
  2
VERDECKTE_KANTE
 62
8
  6
VERDECKTE_KANTE
 70
64
  0
LAYER
  2
HILFSLINIE
 62
8
  6
HILFSLINIE
 70
64
  0
LAYER
  2
BRUCHLINIE
 62
8
  6
BRUCHLINIE
 70
64
  0
LAYER
  2
MITTELLINIE
 62
8
  6
MITTELLINIE
 70
64
  0
LAYER
  2
SCHNITTLINIE
 62
7
  6
SCHNITTLINIE
 70
64
  0
LAYER
  2
SCHWERLINIE
 62
8
  6
SCHWERLINIE
 70
64
  0
LAYER
  2
ENTWURFSLINIE
 62
8
  6
ENTWURFSLINIE
 70
64
  0
LAYER
  2
SONDERLINIE_1
 62
8
  6
SONDERLINIE1
 70
64
  0
LAYER
  2
SONDERLINIE_2
 62
8
  6
SONDERLINIE2
 70
64
  0
LAYER
  2
SONDERLINIE_3
 62
8
  6
SONDERLINIE3
 70
64
  0
LAYER
  2
SONDERLINIE_4
 62
8
  6
SONDERLINIE4
 70
64
  0
LAYER
  2
SONDERLINIE_5
 62
8
  6
SONDERLINIE5
 70
64
  0
LAYER
  2
SONDERLINIE_6
 62
8
  6
SONDERLINIE6
 70
64
  0
LAYER
  2
SONDERLINIE_7
 62
8
  6
SONDERLINIE7
 70
64
  0
LAYER
  2
SONDERLINIE_8
 62
8
  6
SONDERLINIE8
 70
64
  0
LAYER
  2
2D-TEXT
 62
7
  6
AUSGEZOGEN
 70
64
  0
LAYER
  2
SCHRAFFUR
 62
8
  6
HILFSLINIE
 70
64
  0
LAYER
  2
SYMBOL
 62
7
  6
HILFSLINIE
 70
64
  0
LAYER
  2
BEMASSUNG
 62
8
  6
HILFSLINIE
 70
64
  0
LAYER
  2
OBERFLAECHENZEICHEN
 62
8
  6
HILFSLINIE
 70
64
  0
LAYER
  2
FORM-LAGE-TOLERANZEN
 62
8
  6
HILFSLINIE
 70
64
  0
LAYER
  2
SCHWEISSZEICHEN
 62
8
  6
HILFSLINIE
 70
64
  0
LAYER
  2
GRUNDEBENE
 62
7
  6
AUSGEZOGEN
 70
64
  0
ENDTAB
  0
TABLE
  2
STYLE
 70
23
  0
STYLE
  2
STANDARD
 70
0
 40
0
 41
       1.000000
 50
       0.000000
 71
0
 42
       3.500000
  3
isocp
  4

  0
STYLE
  2
DIN-EN-ISO-3098
 70
0
 40
0
 41
       1.000000
 50
       0.000000
 71
0
 42
       3.500000
  3
isocp
  4

  0
STYLE
  2
ROMAN
 70
0
 40
0
 41
       1.000000
 50
       0.000000
 71
0
 42
       3.500000
  3
romans.shx
  4

  0
STYLE
  2
SCRIPT
 70
0
 40
0
 41
       1.000000
 50
       0.000000
 71
0
 42
       3.500000
  3
scripts.shx
  4

  0
STYLE
  2
GRIECHISCH
 70
0
 40
0
 41
       1.000000
 50
       0.000000
 71
0
 42
       3.500000
  3
greeks.shx
  4

  0
STYLE
  2
KYRILLISCH
 70
0
 40
0
 41
       1.000000
 50
       0.000000
 71
0
 42
       3.500000
  3
cyrillic.shx
  4

  0
STYLE
  2
MATH--FORMELZEICHEN
 70
0
 40
0
 41
       1.000000
 50
       0.000000
 71
0
 42
       3.500000
  3
symath.shx
  4

  0
STYLE
  2
DOPPELLINIE
 70
0
 40
0
 41
       1.000000
 50
       0.000000
 71
0
 42
       3.500000
  3
swissko.ttf
  4

  0
STYLE
  2
SERIFENSCHRIFT
 70
0
 40
0
 41
       1.000000
 50
       0.000000
 71
0
 42
       3.500000
  3
romanc__.ttf
  4

  0
STYLE
  2
ARIAL
 70
0
 40
0
 41
       1.000000
 50
       0.000000
 71
0
 42
       3.500000
  3
arial.ttf
  4

  0
STYLE
  2
ARIAL-FETT
 70
0
 40
0
 41
       1.000000
 50
       0.000000
 71
0
 42
       3.500000
  3
arialbd.ttf
  4

  0
STYLE
  2
TIMES-NEW-ROMAN
 70
0
 40
0
 41
       1.000000
 50
       0.000000
 71
0
 42
       3.500000
  3
times.ttf
  4

  0
STYLE
  2
TIMES-NEW-ROMAN-FETT
 70
0
 40
0
 41
       1.000000
 50
       0.000000
 71
0
 42
       3.500000
  3
timesbd.ttf
  4

  0
STYLE
  2
ISO-3098-OSTEUROPA
 70
0
 40
0
 41
       1.000000
 50
       0.000000
 71
0
 42
       3.500000
  3
txt
  4

  0
STYLE
  2
ISO-3098-KYRILLISCH
 70
0
 40
0
 41
       1.000000
 50
       0.000000
 71
0
 42
       3.500000
  3
txt
  4

  0
STYLE
  2
ARIAL-OSTEUROPA
 70
0
 40
0
 41
       1.000000
 50
       0.000000
 71
0
 42
       3.500000
  3
arial.ttf
  4

  0
STYLE
  2
ARIAL-KYRILLISCH
 70
0
 40
0
 41
       1.000000
 50
       0.000000
 71
0
 42
       3.500000
  3
arial.ttf
  4

  0
STYLE
  2
ARIAL-FETT-OSTEUROPA
 70
0
 40
0
 41
       1.000000
 50
       0.000000
 71
0
 42
       3.500000
  3
arialbd.ttf
  4

  0
STYLE
  2
ARIAL-FETT-KYRILLISCH
 70
0
 40
0
 41
       1.000000
 50
       0.000000
 71
0
 42
       3.500000
  3
arialbd.ttf
  4

  0
STYLE
  2
TIMES-N-R-OSTEUROPA
 70
0
 40
0
 41
       1.000000
 50
       0.000000
 71
0
 42
       3.500000
  3
times.ttf
  4

  0
STYLE
  2
TIMES-N-R-KYRILLISCH
 70
0
 40
0
 41
       1.000000
 50
       0.000000
 71
0
 42
       3.500000
  3
times.ttf
  4

  0
STYLE
  2
TIMES-N-R-FETT-OSTEUROPA
 70
0
 40
0
 41
       1.000000
 50
       0.000000
 71
0
 42
       3.500000
  3
timesbd.ttf
  4

  0
STYLE
  2
TIMES-N-R-FETT-KYRILLISCH
 70
0
 40
0
 41
       1.000000
 50
       0.000000
 71
0
 42
       3.500000
  3
timesbd.ttf
  4

  0
ENDTAB
  0
TABLE
  2
VIEW
 70
0
  0
ENDTAB
  0
TABLE
  2
VPORT
 70
2
  0
VPORT
  2
*ACTIVE
 70
0
 10
       0.000000
 20
       0.000000
 11
       1.000000
 21
       1.000000
 12
1252.9288330078
 22
663.50311279297
 13
       0.000000
 23
       0.000000
 14
       1.000000
 24
       1.000000
 15
       0.000000
 25
       0.000000
 16
       0.000000
 26
       0.000000
 36
       1.000000
 17
       0.000000
 27
       0.000000
 37
       0.000000
 40
1356.2156982422
 41
1.8692212027612
 42
      50.000000
 43
       0.000000
 44
       0.000000
 50
       0.000000
 51
       0.000000
 71
0
 72
100
 73
1
 74
1
 75
0
 76
0
 77
0
 78
0
  0
ENDTAB
  0
TABLE
  2
APPID
 70
2
  0
APPID
  2
ACAD
 70
0
  0
APPID
  2
AC2KIMGDXF12EXP
 70
0
  0
ENDTAB
  0
TABLE
  2
DIMSTYLE
 70
1
  0
DIMSTYLE
  2
STDBEM
 70
0
  3

  4

  5

  6

  7

 40
       1.000000
 41
       3.500000
 42
       0.100000
 43
       7.000000
 44
       1.800000
 45
       0.000000
 46
       0.000000
 47
       0.000000
 48
       0.000000
140
       3.500000
141
       1.500000
142
       0.000000
143
      25.400000
144
       1.000000
145
       0.000000
146
       1.000000
147
       0.090000
 71
0
 72
0
 73
0
 74
0
 75
0
 76
0
 77
1
 78
0
170
0
171
2
172
0
173
0
174
0
175
0
176
0
177
0
178
0
  0
ENDTAB
  0
ENDSEC
  0
SECTION
  2
BLOCKS
  0
ENDSEC
  0
SECTION
  2
ENTITIES
  0
ARC
  8
VERDECKTE_KANTE
 10
294.16122436523
 20
1224.0178222656
 30
0.
 40
14.999998092651
 50
142.21056875244
 51
155.40045457166
  0
ARC
  8
VERDECKTE_KANTE
 10
177.36779785156
 20
1234.0100097656
 30
0.
 40
8.9999990463257
 50
204.61014237984
 51
270.
  0
ARC
  8
VERDECKTE_KANTE
 10
272.33944702148
 20
1234.0100097656
 30
0.
 40
8.9999990463257
 50
270.
 51
335.38985762016
  0
ARC
  8
VERDECKTE_KANTE
 10
155.53234863281
 20
1224.0178222656
 30
0.
 40
14.999998092651
 50
24.599933627085
 51
37.789431247561
  0
ARC
  8
VERDECKTE_KANTE
 10
1494.7314453125
 20
1224.0178222656
 30
0.
 40
14.999998092651
 50
142.21056875244
 51
155.40045457166
  0
ARC
  8
VERDECKTE_KANTE
 10
1377.9379882813
 20
1234.0100097656
 30
0.
 40
8.9999990463257
 50
204.61014237984
 51
270.
  0
ARC
  8
VERDECKTE_KANTE
 10
1472.9096679688
 20
1234.0100097656
 30
0.
 40
8.9999990463257
 50
270.
 51
335.38985762016
  0
ARC
  8
VERDECKTE_KANTE
 10
1356.1025390625
 20
1224.0178222656
 30
0.
 40
14.999998092651
 50
24.599933627085
 51
37.789431247561
  0
LINE
  8
VERDECKTE_KANTE
 10
177.35363769531
 20
1225.0100097656
 30
0.
 11
272.35360717773
 21
1225.0100097656
 31
0.
  0
LINE
  8
VERDECKTE_KANTE
 10
1377.923828125
 20
1225.0100097656
 30
0.
 11
1472.923828125
 21
1225.0100097656
 31
0.
  0
LINE
  8
HILFSLINIE
 10
1323.2121582031
 20
611.29919433594
 30
0.
 11
2510.212890625
 21
611.29919433594
 31
0.
  0
LINE
  8
HILFSLINIE
 10
36.853649139404
 20
947.30889892578
 30
0.
 11
1112.853515625
 21
947.30889892578
 31
0.
  0
LINE
  8
HILFSLINIE
 10
1118.853515625
 20
941.30889892578
 30
0.
 11
1118.853515625
 21
65.30899810791
 31
0.
  0
LINE
  8
HILFSLINIE
 10
1112.853515625
 20
59.30899810791
 30
0.
 11
36.853649139404
 21
59.30899810791
 31
0.
  0
LINE
  8
HILFSLINIE
 10
30.853649139404
 20
65.30899810791
 30
0.
 11
30.853649139404
 21
941.30889892578
 31
0.
  0
ARC
  8
HILFSLINIE
 10
-5940.1452636719
 20
503.30895996094
 30
0.
 40
6999.9990234375
 50
357.53417752579
 51
358.21004679216
  0
ARC
  8
HILFSLINIE
 10
574.85382080078
 20
11118.307373047
 30
0.
 40
10999.999023438
 50
271.47292305831
 51
272.09181389758
  0
ARC
  8
HILFSLINIE
 10
176.26135253906
 20
801.03155517578
 30
0.
 40
47.
 50
92.091255495836
 51
177.53255367577
  0
ARC
  8
HILFSLINIE
 10
176.26135253906
 20
205.58633422852
 30
0.
 40
99.999977111816
 50
182.46604771581
 51
267.9081601591
  0
ARC
  8
HILFSLINIE
 10
973.44604492188
 20
801.03155517578
 30
0.
 40
47.
 50
2.4674463242321
 51
87.90814965779
  0
ARC
  8
HILFSLINIE
 10
574.85382080078
 20
-10111.687744141
 30
0.
 40
10966.999023438
 50
87.908174921617
 51
92.091823963078
  0
ARC
  8
HILFSLINIE
 10
7089.8537597656
 20
503.30895996094
 30
0.
 40
6966.9990234375
 50
177.53416279913
 51
182.46582124645
  0
ARC
  8
HILFSLINIE
 10
176.26135253906
 20
205.58633422852
 30
0.
 40
47.
 50
182.46506755868
 51
267.90814965779
  0
ARC
  8
HILFSLINIE
 10
574.85382080078
 20
11118.307373047
 30
0.
 40
10966.999023438
 50
267.90817348765
 51
271.37916723854
  0
ARC
  8
HILFSLINIE
 10
-5940.1452636719
 20
503.30895996094
 30
0.
 40
6966.9990234375
 50
358.35572065769
 51
2.4658371900718
  0
ARC
  8
HILFSLINIE
 10
-5940.1452636719
 20
503.30895996094
 30
0.
 40
7019.9990234375
 50
358.12251562774
 51
2.4658293700346
  0
ARC
  8
HILFSLINIE
 10
574.85382080078
 20
11118.307373047
 30
0.
 40
11019.999023438
 50
267.90817343938
 51
271.52943139598
  0
ARC
  8
HILFSLINIE
 10
7089.8537597656
 20
503.30895996094
 30
0.
 40
7019.9990234375
 50
177.53417063532
 51
182.46582949178
  0
ARC
  8
HILFSLINIE
 10
176.26135253906
 20
801.03155517578
 30
0.
 40
99.999977111816
 50
92.091560103832
 51
177.53395228419
  0
ARC
  8
HILFSLINIE
 10
574.85382080078
 20
-10111.687744141
 30
0.
 40
11019.999023438
 50
87.908174873687
 51
92.091823937091
  0
ARC
  8
HILFSLINIE
 10
973.44604492188
 20
801.03155517578
 30
0.
 40
99.999992370605
 50
2.466044518345
 51
87.908160318657
  0
ARC
  8
HILFSLINIE
 10
1112.853515625
 20
65.30899810791
 30
0.
 40
5.9999990463257
 50
270.
 51
0.
  0
ARC
  8
HILFSLINIE
 10
36.853649139404
 20
65.30899810791
 30
0.
 40
5.9999990463257
 50
180.
 51
270.
  0
ARC
  8
HILFSLINIE
 10
36.853649139404
 20
941.30889892578
 30
0.
 40
5.9999990463257
 50
90.
 51
180.
  0
ARC
  8
HILFSLINIE
 10
1112.853515625
 20
941.30889892578
 30
0.
 40
5.9999990463257
 50
0.
 51
90.
  0
CIRCLE
  8
HILFSLINIE
 10
224.85362243652
 20
753.30889892578
 30
0.
 40
64.999992370605
  0
LINE
  8
MITTELLINIE
 10
224.85362243652
 20
1226.8713378906
 30
0.
 11
224.85362243652
 21
1265.2092285156
 31
0.
  0
LINE
  8
MITTELLINIE
 10
224.84678649902
 20
1279.1408691406
 30
0.
 11
224.84678649902
 21
1214.0783691406
 31
0.
  0
LINE
  8
MITTELLINIE
 10
1124.853515625
 20
503.30895996094
 30
0.
 11
24.853649139404
 21
503.30895996094
 31
0.
  0
LINE
  8
MITTELLINIE
 10
574.85382080078
 20
53.309005737305
 30
0.
 11
574.85382080078
 21
953.30889892578
 31
0.
  0
LINE
  8
MITTELLINIE
 10
315.85360717773
 20
753.30889892578
 30
0.
 11
133.85363769531
 21
753.30889892578
 31
0.
  0
LINE
  8
MITTELLINIE
 10
224.85362243652
 20
662.30895996094
 30
0.
 11
224.85362243652
 21
844.30889892578
 31
0.
  0
LINE
  8
MITTELLINIE
 10
574.85382080078
 20
1302.9084472656
 30
0.
 11
574.85382080078
 21
1208.0334472656
 31
0.
  0
LINE
  8
MITTELLINIE
 10
1425.423828125
 20
1226.8713378906
 30
0.
 11
1425.423828125
 21
1265.2092285156
 31
0.
  0
LINE
  8
MITTELLINIE
 10
1425.4169921875
 20
1279.1408691406
 30
0.
 11
1425.4169921875
 21
1214.0783691406
 31
0.
  0
ARC
  8
SICHTBARE_KANTE
 10
30.853649139404
 20
1259.2092285156
 30
0.
 40
5.9999990463257
 50
87.378807365184
 51
180.
  0
ARC
  8
SICHTBARE_KANTE
 10
30.853649139404
 20
1239.2092285156
 30
0.
 40
5.9999990463257
 50
180.
 51
270.00233137124
  0
ARC
  8
SICHTBARE_KANTE
 10
1118.853515625
 20
1259.2092285156
 30
0.
 40
5.9999990463257
 50
0.
 51
92.621192634816
  0
ARC
  8
SICHTBARE_KANTE
 10
1118.853515625
 20
1239.2092285156
 30
0.
 40
5.9999990463257
 50
270.
 51
0.
  0
ARC
  8
SICHTBARE_KANTE
 10
973.44604492188
 20
801.03155517578
 30
0.
 40
79.999992370605
 50
2.4668890543177
 51
87.908135583364
  0
ARC
  8
SICHTBARE_KANTE
 10
574.85382080078
 20
-10111.687744141
 30
0.
 40
10999.999023438
 50
87.908174650631
 51
92.091826699605
  0
ARC
  8
SICHTBARE_KANTE
 10
176.26135253906
 20
801.03155517578
 30
0.
 40
79.999992370605
 50
92.091864416636
 51
177.53311470869
  0
ARC
  8
SICHTBARE_KANTE
 10
176.26135253906
 20
205.58633422852
 30
0.
 40
79.999992370605
 50
182.46548776417
 51
267.90813558336
  0
ARC
  8
SICHTBARE_KANTE
 10
574.85382080078
 20
11118.307373047
 30
0.
 40
10999.999023438
 50
267.90817329749
 51
271.47292305831
  0
ARC
  8
SICHTBARE_KANTE
 10
7089.8537597656
 20
503.30895996094
 30
0.
 40
6999.9990234375
 50
177.53416165464
 51
182.46582247152
  0
ARC
  8
SICHTBARE_KANTE
 10
-5940.1452636719
 20
503.30895996094
 30
0.
 40
6999.9990234375
 50
358.21004679216
 51
2.4658383641642
  0
ARC
  8
SICHTBARE_KANTE
 10
36.853649139404
 20
941.30889892578
 30
0.
 40
11.999998092651
 50
90.
 51
180.
  0
ARC
  8
SICHTBARE_KANTE
 10
1112.853515625
 20
941.30889892578
 30
0.
 40
11.999998092651
 50
0.
 51
90.
  0
ARC
  8
SICHTBARE_KANTE
 10
1112.853515625
 20
65.30899810791
 30
0.
 40
11.999998092651
 50
270.
 51
0.
  0
ARC
  8
SICHTBARE_KANTE
 10
36.853649139404
 20
65.30899810791
 30
0.
 40
11.999998092651
 50
180.
 51
270.
  0
ARC
  8
SICHTBARE_KANTE
 10
1231.423828125
 20
1259.2092285156
 30
0.
 40
5.9999990463257
 50
87.378807365184
 51
180.
  0
ARC
  8
SICHTBARE_KANTE
 10
1231.423828125
 20
1239.2092285156
 30
0.
 40
5.9999990463257
 50
180.
 51
270.00233137124
  0
ARC
  8
SICHTBARE_KANTE
 10
2119.423828125
 20
1259.2092285156
 30
0.
 40
5.9999990463257
 50
0.
 51
92.621192634816
  0
ARC
  8
SICHTBARE_KANTE
 10
2119.423828125
 20
1239.2092285156
 30
0.
 40
5.9999990463257
 50
270.
 51
0.
  0
LINE
  8
SICHTBARE_KANTE
 10
24.853649139404
 20
1239.2092285156
 30
0.
 11
24.853649139404
 21
1259.2092285156
 31
0.
  0
LINE
  8
SICHTBARE_KANTE
 10
30.853649139404
 20
1265.2092285156
 30
0.
 11
1118.853515625
 21
1265.2092285156
 31
0.
  0
LINE
  8
SICHTBARE_KANTE
 10
30.853893280029
 20
1233.2092285156
 30
0.
 11
1118.853515625
 21
1233.2092285156
 31
0.
  0
LINE
  8
SICHTBARE_KANTE
 10
1124.853515625
 20
1239.2092285156
 30
0.
 11
1124.853515625
 21
1259.2092285156
 31
0.
  0
LINE
  8
SICHTBARE_KANTE
 10
1112.853515625
 20
53.309005737305
 30
0.
 11
36.853649139404
 21
53.309005737305
 31
0.
  0
LINE
  8
SICHTBARE_KANTE
 10
1124.853515625
 20
941.30889892578
 30
0.
 11
1124.853515625
 21
65.30899810791
 31
0.
  0
LINE
  8
SICHTBARE_KANTE
 10
24.853649139404
 20
65.30899810791
 30
0.
 11
24.853649139404
 21
941.30889892578
 31
0.
  0
LINE
  8
SICHTBARE_KANTE
 10
36.853649139404
 20
953.30889892578
 30
0.
 11
1112.853515625
 21
953.30889892578
 31
0.
  0
LINE
  8
SICHTBARE_KANTE
 10
1225.423828125
 20
1239.2092285156
 30
0.
 11
1225.423828125
 21
1259.2092285156
 31
0.
  0
LINE
  8
SICHTBARE_KANTE
 10
1231.423828125
 20
1265.2092285156
 30
0.
 11
2119.423828125
 21
1265.2092285156
 31
0.
  0
LINE
  8
SICHTBARE_KANTE
 10
1231.4240722656
 20
1233.2092285156
 30
0.
 11
2119.423828125
 21
1233.2092285156
 31
0.
  0
LINE
  8
SICHTBARE_KANTE
 10
2125.423828125
 20
1239.2092285156
 30
0.
 11
2125.423828125
 21
1259.2092285156
 31
0.
  0
LINE
  8
SICHTBARE_KANTE
 10
39.853649139404
 20
1145.2092285156
 30
0.
 11
39.853649139404
 21
1233.2092285156
 31
0.
  0
LINE
  8
SICHTBARE_KANTE
 10
1109.853515625
 20
1145.2092285156
 30
0.
 11
1109.853515625
 21
1233.2092285156
 31
0.
  0
LINE
  8
SICHTBARE_KANTE
 10
1240.423828125
 20
1145.2092285156
 30
0.
 11
1240.423828125
 21
1233.2092285156
 31
0.
  0
LINE
  8
SICHTBARE_KANTE
 10
2110.423828125
 20
1145.2092285156
 30
0.
 11
2110.423828125
 21
1233.2092285156
 31
0.
  0
LINE
  8
SICHTBARE_KANTE
 10
39.853649139404
 20
1145.2092285156
 30
0.
 11
1109.853515625
 21
1145.2092285156
 31
0.
  0
LINE
  8
SICHTBARE_KANTE
 10
1240.423828125
 20
1145.2092285156
 30
0.
 11
2110.423828125
 21
1145.2092285156
 31
0.
  0
CIRCLE
  8
SICHTBARE_KANTE
 10
224.85362243652
 20
753.30889892578
 30
0.
 40
44.999996185303
  0
TEXT
  8
2D-TEXT
 10
1662.3177490234
 20
855.10772705078
 30
0.
 40
99.999992370605
 50
0.
 51
360.
 41
.74666665242513
  1
SUPERPLAN
  7
DIN-EN-ISO-3098
 72
5
 11
2168.9843444824
 21
855.10772705078
 31
0.
  0
TEXT
  8
2D-TEXT
 10
1325.5520019531
 20
675.96514892578
 30
0.
 40
66.666664123535
 50
0.
 51
360.
 41
.91000000801086
  1
Modell
  7
DIN-EN-ISO-3098
 72
5
 11
1533.5520172119
 21
675.96514892578
 31
0.
  0
TEXT
  8
2D-TEXT
 10
1658.8848876953
 20
675.96514892578
 30
0.
 40
66.666664123535
 50
0.
 51
360.
 41
.91000000801086
  1
Laenge
  7
DIN-EN-ISO-3098
 72
5
 11
1901.5515594482
 21
675.96514892578
 31
0.
  0
TEXT
  8
2D-TEXT
 10
1992.2178955078
 20
675.96319580078
 30
0.
 40
66.666664123535
 50
0.
 51
360.
 41
.91000000801086
  1
Breite
  7
DIN-EN-ISO-3098
 72
5
 11
2190.9878997803
 21
675.96319580078
 31
0.
  0
TEXT
  8
2D-TEXT
 10
2325.55078125
 20
675.96319580078
 30
0.
 40
66.666664123535
 50
0.
 51
360.
 41
.91000000801086
  1
Tiefe
  7
DIN-EN-ISO-3098
 72
5
 11
2492.3841247559
 21
675.96319580078
 31
0.
  0
TEXT
  8
2D-TEXT
 10
2325.55078125
 20
475.96325683594
 30
0.
 40
66.666664123535
 50
0.
 51
360.
 41
.91000000801086
  1
27
  7
DIN-EN-ISO-3098
 72
5
 11
2394.8841094971
 21
475.96325683594
 31
0.
  0
TEXT
  8
2D-TEXT
 10
1992.2169189453
 20
475.96325683594
 30
0.
 40
66.666664123535
 50
0.
 51
360.
 41
.91000000801086
  1
1100
  7
DIN-EN-ISO-3098
 72
5
 11
2126.5502471924
 21
475.96325683594
 31
0.
  0
TEXT
  8
2D-TEXT
 10
1658.8839111328
 20
475.96520996094
 30
0.
 40
66.666664123535
 50
0.
 51
360.
 41
.91000000801086
  1
900
  7
DIN-EN-ISO-3098
 72
5
 11
1771.5505752563
 21
475.96520996094
 31
0.
  0
TEXT
  8
2D-TEXT
 10
1325.5510253906
 20
475.96520996094
 30
0.
 40
66.666664123535
 50
0.
 51
360.
 41
.91000000801086
  1
405-2
  7
DIN-EN-ISO-3098
 72
5
 11
1520.5510253906
 21
475.96520996094
 31
0.
  0
TEXT
  8
2D-TEXT
 10
1325.5510253906
 20
355.96520996094
 30
0.
 40
66.666664123535
 50
0.
 51
360.
 41
.91000000801086
  1
mit Wannentraeger
  7
DIN-EN-ISO-3098
 72
5
 11
2010.2176513672
 21
355.96520996094
 31
0.
  0
ENDSEC
  0
EOF
