  0
SECTION
  2
HEADER
  9
$ACADVER
  1
AC1009
  9
$ANGBASE
 50
       0.000000
  9
$ANGDIR
 70
     0
  9
$ATTDIA
 70
     0
  9
$ATTMODE
 70
     0
  9
$ATTREQ
 70
     0
  9
$AUNITS
 70
     0
  9
$AUPREC
 70
     1
  9
$BLIPMODE
 70
     1
  9
$CECOLOR
 62
   256
  9
$CELTYPE
  6
BYLAYER
  9
$CHAMFERA
 40
       0.000000
  9
$CHAMFERB
 40
       0.000000
  9
$CLAYER
  8
0
  9
$COORDS
 70
     1
  9
$DIMALT
 70
     0
  9
$DIMALTD
 70
     2
  9
$DIMALTF
 40
      25.400000
  9
$DIMAPOST
  1

  9
$DIMASO
 70
     0
  9
$DIMASZ
 40
       3.500000
  9
$DIMBLK
  1

  9
$DIMBLK1
  1

  9
$DIMBLK2
  1

  9
$DIMCEN
 40
       1.500000
  9
$DIMCLRD
 70
     0
  9
$DIMCLRE
 70
     0
  9
$DIMCLRT
 70
     0
  9
$DIMDLE
 40
       0.000000
  9
$DIMDLI
 40
       7.000000
  9
$DIMEXE
 40
       1.800000
  9
$DIMEXO
 40
       0.100000
  9
$DIMGAP
 40
       0.090000
  9
$DIMLFAC
 40
       1.000000
  9
$DIMLIM
 70
     0
  9
$DIMPOST
  1

  9
$DIMRND
 40
       0.000000
  9
$DIMSAH
 70
     0
  9
$DIMSCALE
 40
       1.000000
  9
$DIMSE1
 70
     0
  9
$DIMSE2
 70
     0
  9
$DIMSHO
 70
     1
  9
$DIMSOXD
 70
     0
  9
$DIMSTYLE
  2
*UNNAMED
  9
$DIMTAD
 70
     1
  9
$DIMTFAC
 40
       1.000000
  9
$DIMTIH
 70
     0
  9
$DIMTIX
 70
     0
  9
$DIMTM
 40
       0.000000
  9
$DIMTOFL
 70
     0
  9
$DIMTOH
 70
     0
  9
$DIMTOL
 70
     0
  9
$DIMTP
 40
       0.000000
  9
$DIMTSZ
 40
       0.000000
  9
$DIMTVP
 40
       0.000000
  9
$DIMTXT
 40
       3.500000
  9
$DIMZIN
 70
     0
  9
$DRAGMODE
 70
     2
  9
$DWGCODEPAGE
  3
dos850
  9
$ELEVATION
 40
       0.000000
  9
$EXTMAX
 10
    2569.389893
 20
    1902.942261
 30
       0.000000
  9
$EXTMIN
 10
       0.000000
 20
       0.000000
 30
       0.000000
  9
$FILLETRAD
 40
       0.000000
  9
$FILLMODE
 70
     1
  9
$HANDLING
 70
     0
  9
$HANDSEED
  5
0
  9
$INSBASE
 10
       0.000000
 20
       0.000000
 30
       0.000000
  9
$LIMCHECK
 70
     0
  9
$LIMMAX
 10
    2569.389893
 20
    1902.942261
  9
$LIMMIN
 10
       0.000000
 20
       0.000000
  9
$LTSCALE
 40
       1.000000
  9
$LUNITS
 70
     2
  9
$LUPREC
 70
     2
  9
$MAXACTVP
 70
    16
  9
$MENU
  1
ACAD
  9
$MIRRTEXT
 70
     0
  9
$ORTHOMODE
 70
     0
  9
$OSMODE
 70
     0
  9
$PDMODE
 70
     0
  9
$PDSIZE
 40
       0.000000
  9
$PELEVATION
 40
       0.000000
  9
$PEXTMAX
 10
    2569.389893
 20
    1902.942261
 30
       0.000000
  9
$PEXTMIN
 10
       0.000000
 20
       0.000000
 30
       0.000000
  9
$PINSBASE
 10
       0.000000
 20
       0.000000
 30
       0.000000
  9
$PLIMCHECK
 70
     0
  9
$PLIMMAX
 10
    2569.389893
 20
    1902.942261
  9
$PLIMMIN
 10
       0.000000
 20
       0.000000
  9
$PLINEGEN
 70
     0
  9
$PLINEWID
 40
       0.000000
  9
$PSLTSCALE
 70
     1
  9
$PUCSNAME
  2

  9
$PUCSORG
 10
       0.000000
 20
       0.000000
 30
       0.000000
  9
$PUCSXDIR
 10
       1.000000
 20
       0.000000
 30
       0.000000
  9
$PUCSYDIR
 10
       0.000000
 20
       1.000000
 30
       0.000000
  9
$QTEXTMODE
 70
     0
  9
$REGENMODE
 70
     1
  9
$SHADEDGE
 70
     3
  9
$SHADEDIF
 70
    70
  9
$SKETCHINC
 40
       1.000000
  9
$SKPOLY
 70
     0
  9
$SPLFRAME
 70
     0
  9
$SPLINESEGS
 70
     8
  9
$SPLINETYPE
 70
     6
  9
$SURFTAB1
 70
     6
  9
$SURFTAB2
 70
     6
  9
$SURFTYPE
 70
     6
  9
$SURFU
 70
     6
  9
$SURFV
 70
     6
  9
$TDCREATE
 40
2453461.5666666669
  9
$TDINDWG
 40
       0.000000
  9
$TDUPDATE
 40
2453461.5666666669
  9
$TDUSRTIMER
 40
       0.000000
  9
$TEXTSIZE
 40
       3.500000
  9
$TEXTSTYLE
  7
STANDARD
  9
$THICKNESS
 40
       0.000000
  9
$TILEMODE
 70
     1
  9
$TRACEWID
 40
       1.000000
  9
$TREEDEPTH
 70
 -3020
  9
$UCSNAME
  2

  9
$UCSORG
 10
       0.000000
 20
       0.000000
 30
       0.000000
  9
$UCSXDIR
 10
       1.000000
 20
       0.000000
 30
       0.000000
  9
$UCSYDIR
 10
       0.000000
 20
       1.000000
 30
       0.000000
  9
$UNITMODE
 70
     0
  9
$USERI1
 70
     0
  9
$USERI2
 70
     0
  9
$USERI3
 70
     0
  9
$USERI4
 70
     0
  9
$USERI5
 70
     0
  9
$USERR1
 40
       0.000000
  9
$USERR2
 40
       0.000000
  9
$USERR3
 40
       0.000000
  9
$USERR4
 40
       0.000000
  9
$USERR5
 40
       0.000000
  9
$USRTIMER
 70
     0
  9
$VISRETAIN
 70
     0
  9
$WORLDVIEW
 70
     1
  0
ENDSEC
  0
SECTION
  2
TABLES
  0
TABLE
  2
LTYPE
 70
    16
  0
LTYPE
  2
AUSGEZOGEN
 70
     0
  3
________________
 72
    65
 73
     0
 40
       0.000000
  0
LTYPE
  2
VERDECKTE_KANTE
 70
     0
  3
____________
 72
    65
 73
     2
 40
5.
 49
4.
 49
-1.
  0
LTYPE
  2
HILFSLINIE
 70
     0
  3
________________
 72
    65
 73
     0
 40
       0.000000
  0
LTYPE
  2
BRUCHLINIE
 70
     0
  3
________________
 72
    65
 73
     0
 40
       0.000000
  0
LTYPE
  2
MITTELLINIE
 70
     0
  3
__________ _
 72
    65
 73
     4
 40
13.
 49
10.
 49
-1.
 49
1.
 49
-1.
  0
LTYPE
  2
SCHNITTLINIE
 70
     0
  3
__________ _
 72
    65
 73
     4
 40
13.
 49
10.
 49
-1.
 49
1.
 49
-1.
  0
LTYPE
  2
SCHWERLINIE
 70
     0
  3
__________ _ _
 72
    65
 73
     6
 40
15.
 49
10.
 49
-1.
 49
1.
 49
-1.
 49
1.
 49
-1.
  0
LTYPE
  2
ENTWURFSLINIE
 70
     0
  3
_   _   _   _
 72
    65
 73
     8
 40
16.
 49
1.
 49
-3.
 49
1.
 49
-3.
 49
1.
 49
-3.
 49
1.
 49
-3.
  0
LTYPE
  2
SONDERLINIE1
 70
     0
  3
________________
 72
    65
 73
     0
 40
       0.000000
  0
LTYPE
  2
SONDERLINIE2
 70
     0
  3
__________ _ _
 72
    65
 73
     6
 40
15.
 49
10.
 49
-1.
 49
1.
 49
-1.
 49
1.
 49
-1.
  0
LTYPE
  2
SONDERLINIE3
 70
     0
  3
_________ _ _ _
 72
    65
 73
     8
 40
16.
 49
9.
 49
-1.
 49
1.
 49
-1.
 49
1.
 49
-1.
 49
1.
 49
-1.
  0
LTYPE
  2
SONDERLINIE4
 70
     0
  3
_________ _ _ _
 72
    65
 73
     8
 40
16.
 49
9.
 49
-1.
 49
1.
 49
-1.
 49
1.
 49
-1.
 49
1.
 49
-1.
  0
LTYPE
  2
SONDERLINIE5
 70
     0
  3
_______ _ _ _ _
 72
    65
 73
    10
 40
16.
 49
7.
 49
-1.
 49
1.
 49
-1.
 49
1.
 49
-1.
 49
1.
 49
-1.
 49
1.
 49
-1.
  0
LTYPE
  2
SONDERLINIE6
 70
     0
  3
_______ _ _ _ _
 72
    65
 73
    10
 40
16.
 49
7.
 49
-1.
 49
1.
 49
-1.
 49
1.
 49
-1.
 49
1.
 49
-1.
 49
1.
 49
-1.
  0
LTYPE
  2
SONDERLINIE7
 70
     0
  3
_____ _ _ _ _ _
 72
    65
 73
    12
 40
16.
 49
5.
 49
-1.
 49
1.
 49
-1.
 49
1.
 49
-1.
 49
1.
 49
-1.
 49
1.
 49
-1.
 49
1.
 49
-1.
  0
LTYPE
  2
SONDERLINIE8
 70
     0
  3
_____ _ _ _ _ _
 72
    65
 73
    12
 40
16.
 49
5.
 49
-1.
 49
1.
 49
-1.
 49
1.
 49
-1.
 49
1.
 49
-1.
 49
1.
 49
-1.
 49
1.
 49
-1.
  0
ENDTAB
  0
TABLE
  2
LAYER
 70
     1
  0
LAYER
  2
0
 62
     7
  6
AUSGEZOGEN
 70
    64
  0
ENDTAB
  0
TABLE
  2
STYLE
 70
     0
  0
STYLE
  2
STANDARD
 70
     0
 40
     0
 41
       1.000000
 50
       0.000000
 71
     0
 42
       3.500000
  3
isocp
  4

  0
ENDTAB
  0
TABLE
  2
VIEW
 70
     0
  0
ENDTAB
  0
TABLE
  2
VPORT
 70
     2
  0
VPORT
  2
*ACTIVE
 70
     0
 10
       0.000000
 20
       0.000000
 11
       1.000000
 21
       1.000000
 12
    1284.694946
 22
     951.471130
 13
       0.000000
 23
       0.000000
 14
       1.000000
 24
       1.000000
 15
       0.000000
 25
       0.000000
 16
       0.000000
 26
       0.000000
 36
       1.000000
 17
       0.000000
 27
       0.000000
 37
       0.000000
 40
    1902.942261
 41
       1.350220
 42
      50.000000
 43
       0.000000
 44
       0.000000
 50
       0.000000
 51
       0.000000
 71
     0
 72
   100
 73
     1
 74
     1
 75
     0
 76
     0
 77
     0
 78
     0
  0
ENDTAB
  0
TABLE
  2
DIMSTYLE
 70
     1
  0
DIMSTYLE
  2
STDBEM
 70
     0
  3

  4

  5

  6

  7

 40
       1.000000
 41
       3.500000
 42
       0.100000
 43
       7.000000
 44
       1.800000
 45
       0.000000
 46
       0.000000
 47
       0.000000
 48
       0.000000
140
       3.500000
141
       1.500000
142
       0.000000
143
      25.400000
144
       1.000000
145
       0.000000
146
       1.000000
147
       0.090000
 71
     0
 72
     0
 73
     0
 74
     0
 75
     0
 76
     0
 77
     1
 78
     0
170
     0
171
     2
172
     0
173
     0
174
     0
175
     0
176
     0
177
     0
178
     0
  0
ENDTAB
  0
ENDSEC
  0
SECTION
  2
BLOCKS
  0
ENDSEC
  0
SECTION
  2
ENTITIES
  0
LINE
  8
0
  6
HILFSLINIE
 62
     8
 10
    1357.199097
 20
    1010.006714
 11
    2544.199463
 21
    1010.006714
  0
LINE
  8
0
  6
HILFSLINIE
 62
     8
 10
     190.189911
 20
     543.162964
 11
     190.189911
 21
     868.162964
  0
LINE
  8
0
  6
HILFSLINIE
 62
     8
 10
     250.189911
 20
     483.162994
 11
     900.189819
 21
     483.162994
  0
LINE
  8
0
  6
HILFSLINIE
 62
     8
 10
     960.189819
 20
     543.162964
 11
     960.189819
 21
    1193.162842
  0
LINE
  8
0
  6
HILFSLINIE
 62
     8
 10
     575.189880
 20
    1253.162842
 11
     900.189819
 21
    1253.162842
  0
CIRCLE
  8
0
  6
HILFSLINIE
 62
     8
 10
     265.189911
 20
     558.162964
 40
      56.999992
  0
ARC
  8
0
  6
HILFSLINIE
 62
     8
 10
     575.189636
 20
     868.162964
 40
     384.999603
 50
      89.999962
 51
     180.000000
  0
ARC
  8
0
  6
HILFSLINIE
 62
     8
 10
     250.189911
 20
     543.162964
 40
      59.999908
 50
     180.000000
 51
     270.000000
  0
ARC
  8
0
  6
HILFSLINIE
 62
     8
 10
     900.189819
 20
     543.162964
 40
      59.999908
 50
     270.000000
 51
       0.000000
  0
ARC
  8
0
  6
HILFSLINIE
 62
     8
 10
     900.189819
 20
    1193.162842
 40
      59.999908
 50
       0.000000
 51
      90.000000
  0
LINE
  8
0
  6
MITTELLINIE
 62
     8
 10
    2238.351318
 20
    1469.229248
 11
    2238.351318
 21
    1584.780029
  0
LINE
  8
0
  6
MITTELLINIE
 62
     8
 10
     265.189911
 20
    1469.229248
 11
     265.189911
 21
    1576.119873
  0
LINE
  8
0
  6
MITTELLINIE
 62
     8
 10
     265.189911
 20
     624.162964
 11
     265.189911
 21
     492.162964
  0
LINE
  8
0
  6
MITTELLINIE
 62
     8
 10
     331.189911
 20
     558.162964
 11
     199.189911
 21
     558.162964
  0
LINE
  8
0
  6
MITTELLINIE
 62
     8
 10
     575.189880
 20
    1418.162842
 11
     575.189880
 21
     318.162994
  0
LINE
  8
0
  6
MITTELLINIE
 62
     8
 10
    1125.189819
 20
     868.162964
 11
      25.189938
 21
     868.162964
  0
LINE
  8
0
  6
MITTELLINIE
 62
     8
 10
    1928.351318
 20
    1491.379639
 11
    1928.351318
 21
    1591.658936
  0
LINE
  8
0
  6
MITTELLINIE
 62
     8
 10
     575.189880
 20
    1489.289795
 11
     575.189880
 21
    1589.569092
  0
LINE
  8
0
 10
    2422.351318
 20
    1536.162842
 11
    1434.351440
 21
    1536.162842
  0
LINE
  8
0
 10
    2182.528076
 20
    1499.156982
 11
    2190.472412
 21
    1491.213623
  0
LINE
  8
0
 10
    2358.250732
 20
    1530.233154
 11
    2359.839600
 21
    1536.162842
  0
LINE
  8
0
 10
    1535.166992
 20
    1508.951904
 11
    2177.662842
 21
    1501.207764
  0
LINE
  8
0
 10
    2195.422607
 20
    1489.162842
 11
    2281.280029
 21
    1489.162842
  0
LINE
  8
0
 10
    2286.230225
 20
    1491.213623
 11
    2294.226318
 21
    1499.209717
  0
LINE
  8
0
 10
    2298.992920
 20
    1501.258545
 11
    2319.499756
 21
    1501.795654
  0
LINE
  8
0
 10
    2419.351318
 20
    1568.162842
 11
    1437.351440
 21
    1568.162842
  0
LINE
  8
0
 10
    2428.351318
 20
    1542.162842
 11
    2428.351318
 21
    1559.162842
  0
LINE
  8
0
 10
    1428.351440
 20
    1542.162842
 11
    1428.351440
 21
    1559.162842
  0
LINE
  8
0
 10
      81.189926
 20
    1536.162842
 11
    1069.189819
 21
    1536.162842
  0
LINE
  8
0
 10
     321.012909
 20
    1499.156982
 11
     313.068573
 21
    1491.213623
  0
LINE
  8
0
 10
     145.290268
 20
    1530.233154
 11
     143.701401
 21
    1536.162842
  0
LINE
  8
0
 10
     968.374146
 20
    1508.951904
 11
     325.878387
 21
    1501.207764
  0
LINE
  8
0
 10
     308.118866
 20
    1489.162842
 11
     222.260956
 21
    1489.162842
  0
LINE
  8
0
 10
     217.311249
 20
    1491.213623
 11
     209.314667
 21
    1499.209717
  0
LINE
  8
0
 10
     204.548309
 20
    1501.258545
 11
     184.041473
 21
    1501.795654
  0
LINE
  8
0
 10
      84.189926
 20
    1568.162842
 11
    1066.189819
 21
    1568.162842
  0
LINE
  8
0
 10
      75.189934
 20
    1542.162842
 11
      75.189934
 21
    1559.162842
  0
LINE
  8
0
 10
    1075.189819
 20
    1542.162842
 11
    1075.189819
 21
    1559.162842
  0
LINE
  8
0
 10
      75.189934
 20
     388.162994
 11
      75.189934
 21
     868.162964
  0
LINE
  8
0
 10
      95.189926
 20
     368.162994
 11
    1055.189819
 21
     368.162994
  0
LINE
  8
0
 10
    1075.189819
 20
     388.162994
 11
    1075.189819
 21
    1348.162842
  0
LINE
  8
0
 10
     575.189880
 20
    1368.162842
 11
    1055.189819
 21
    1368.162842
  0
LINE
  8
0
 10
     135.189926
 20
     543.162964
 11
     135.189926
 21
     868.162964
  0
LINE
  8
0
 10
     250.189911
 20
     428.162994
 11
     900.189819
 21
     428.162994
  0
LINE
  8
0
 10
    1015.189819
 20
     543.162964
 11
    1015.189819
 21
    1193.162842
  0
LINE
  8
0
 10
     575.189880
 20
    1308.162842
 11
     900.189819
 21
    1308.162842
  0
ARC
  8
0
 10
    2195.422607
 20
    1496.162842
 40
       6.999999
 50
     224.994354
 51
     270.000000
  0
ARC
  8
0
 10
    2177.578857
 20
    1494.207764
 40
       6.999999
 50
      44.997173
 51
      89.312607
  0
ARC
  8
0
 10
    2281.280029
 20
    1496.162842
 40
       6.999999
 50
     270.000000
 51
     315.005646
  0
ARC
  8
0
 10
    2299.176514
 20
    1494.260498
 40
       6.999999
 50
      91.502808
 51
     135.005646
  0
ARC
  8
0
 10
    2318.400146
 20
    1543.780029
 40
      41.999996
 50
     271.500214
 51
     345.001801
  0
ARC
  8
0
 10
    1535.889648
 20
    1550.946045
 40
      41.999985
 50
     200.608612
 51
     268.999115
  0
ARC
  8
0
 10
    1535.191162
 20
    1510.951904
 40
       2.000000
 50
     268.992950
 51
     269.307617
  0
ARC
  8
0
 10
    2419.351318
 20
    1559.162842
 40
       8.999992
 50
       0.000000
 51
      90.000000
  0
ARC
  8
0
 10
    2422.351318
 20
    1542.162842
 40
       5.999995
 50
     270.000000
 51
       0.000000
  0
ARC
  8
0
 10
    1434.351440
 20
    1542.162842
 40
       5.999995
 50
     180.000000
 51
     270.000000
  0
ARC
  8
0
 10
    1437.351440
 20
    1559.162842
 40
       8.999992
 50
      90.000000
 51
     180.000000
  0
ARC
  8
0
 10
     308.118866
 20
    1496.162842
 40
       6.999999
 50
     270.000000
 51
     315.004211
  0
ARC
  8
0
 10
     325.962616
 20
    1494.207764
 40
       6.999999
 50
      90.689384
 51
     135.004227
  0
ARC
  8
0
 10
     222.260956
 20
    1496.162842
 40
       6.999999
 50
     224.995758
 51
     270.000000
  0
ARC
  8
0
 10
     204.364960
 20
    1494.260498
 40
       6.999999
 50
      44.995758
 51
      88.499184
  0
ARC
  8
0
 10
     185.141083
 20
    1543.780029
 40
      41.999996
 50
     194.998260
 51
     268.499786
  0
ARC
  8
0
 10
     967.651489
 20
    1550.946045
 40
      41.999985
 50
     271.000519
 51
     339.391449
  0
ARC
  8
0
 10
     968.349976
 20
    1510.951904
 40
       2.000000
 50
     270.692383
 51
     271.000031
  0
ARC
  8
0
 10
      84.189926
 20
    1559.162842
 40
       8.999992
 50
      90.000000
 51
     180.000000
  0
ARC
  8
0
 10
      81.189926
 20
    1542.162842
 40
       5.999995
 50
     180.000000
 51
     270.000000
  0
ARC
  8
0
 10
    1069.189819
 20
    1542.162842
 40
       5.999995
 50
     270.000000
 51
       0.000000
  0
ARC
  8
0
 10
    1066.189819
 20
    1559.162842
 40
       8.999992
 50
       0.000000
 51
      90.000000
  0
ARC
  8
0
 10
     575.189880
 20
     868.162964
 40
     499.999939
 50
      90.000000
 51
     180.000000
  0
ARC
  8
0
 10
      95.189926
 20
     388.162994
 40
      19.999983
 50
     180.000000
 51
     270.000000
  0
ARC
  8
0
 10
    1055.189819
 20
     388.162994
 40
      19.999983
 50
     270.000000
 51
       0.000000
  0
ARC
  8
0
 10
    1055.189819
 20
    1348.162842
 40
      19.999983
 50
       0.000000
 51
      90.000000
  0
ARC
  8
0
 10
     575.189636
 20
     868.162964
 40
     439.999603
 50
      89.999969
 51
     180.000000
  0
ARC
  8
0
 10
     250.189911
 20
     543.162964
 40
     114.999901
 50
     180.000000
 51
     270.000000
  0
ARC
  8
0
 10
     900.189819
 20
     543.162964
 40
     114.999901
 50
     270.000000
 51
       0.000000
  0
ARC
  8
0
 10
     900.189819
 20
    1193.162842
 40
     114.999901
 50
       0.000000
 51
      90.000000
  0
CIRCLE
  8
0
 10
     265.189911
 20
     558.162964
 40
      44.999996
  0
TEXT
  8
0
 10
    1518.545288
 20
    1249.947998
 40
      99.999992
 50
       0.000000
 51
       0.000000
 41
       0.746667
  1
ZIRKON
 72
     3
 11
    1811.878540
 21
    1249.947998
  0
TEXT
  8
0
 10
    2339.537354
 20
     874.670776
 40
      66.666664
 50
       0.000000
 51
       0.000000
 41
       0.910000
  1
65
 72
     3
 11
    2408.870605
 21
     874.670776
  0
TEXT
  8
0
 10
    2006.203857
 20
     874.670776
 40
      66.666664
 50
       0.000000
 51
       0.000000
 41
       0.910000
  1
1000
 72
     3
 11
    2151.370605
 21
     874.670776
  0
TEXT
  8
0
 10
    1672.870850
 20
     874.672729
 40
      66.666664
 50
       0.000000
 51
       0.000000
 41
       0.910000
  1
1000
 72
     3
 11
    1818.037476
 21
     874.672729
  0
TEXT
  8
0
 10
    1339.537964
 20
     874.672729
 40
      66.666664
 50
       0.000000
 51
       0.000000
 41
       0.910000
  1
510
 72
     3
 11
    1441.371338
 21
     874.672729
  0
TEXT
  8
0
 10
    2339.537354
 20
    1074.670776
 40
      66.666664
 50
       0.000000
 51
       0.000000
 41
       0.910000
  1
Tiefe
 72
     3
 11
    2506.370605
 21
    1074.670776
  0
TEXT
  8
0
 10
    2006.204834
 20
    1074.670776
 40
      66.666664
 50
       0.000000
 51
       0.000000
 41
       0.910000
  1
Breite
 72
     3
 11
    2204.974854
 21
    1074.670776
  0
TEXT
  8
0
 10
    1672.871826
 20
    1074.672729
 40
      66.666664
 50
       0.000000
 51
       0.000000
 41
       0.910000
  1
Laenge
 72
     3
 11
    1915.538452
 21
    1074.672729
  0
TEXT
  8
0
 10
    1339.538940
 20
    1074.672729
 40
      66.666664
 50
       0.000000
 51
       0.000000
 41
       0.910000
  1
Modell
 72
     3
 11
    1547.538940
 21
    1074.672729
  0
ENDSEC
  0
EOF
