  0
SECTION
  2
HEADER
  9
$ACADVER
  1
AC1009
  9
$ANGBASE
 50
        .000000
  9
$ANGDIR
 70
     0
  9
$ATTDIA
 70
     0
  9
$ATTMODE
 70
     0
  9
$ATTREQ
 70
     0
  9
$AUNITS
 70
     0
  9
$AUPREC
 70
     1
  9
$BLIPMODE
 70
     1
  9
$CECOLOR
 62
   256
  9
$CELTYPE
  6
VONLAYER
  9
$CHAMFERA
 40
        .000000
  9
$CHAMFERB
 40
        .000000
  9
$CLAYER
  8
0
  9
$COORDS
 70
     1
  9
$DIMALT
 70
     0
  9
$DIMALTD
 70
     2
  9
$DIMALTF
 40
      25.400000
  9
$DIMAPOST
  1

  9
$DIMASO
 70
     0
  9
$DIMASZ
 40
       3.500000
  9
$DIMBLK
  1

  9
$DIMBLK1
  1

  9
$DIMBLK2
  1

  9
$DIMCEN
 40
       1.500000
  9
$DIMCLRD
 70
     0
  9
$DIMCLRE
 70
     0
  9
$DIMCLRT
 70
     0
  9
$DIMDLE
 40
        .000000
  9
$DIMDLI
 40
       7.000000
  9
$DIMEXE
 40
       1.800000
  9
$DIMEXO
 40
        .100000
  9
$DIMGAP
 40
        .090000
  9
$DIMLFAC
 40
       1.000000
  9
$DIMLIM
 70
     0
  9
$DIMPOST
  1

  9
$DIMRND
 40
        .000000
  9
$DIMSAH
 70
     0
  9
$DIMSCALE
 40
       1.000000
  9
$DIMSE1
 70
     0
  9
$DIMSE2
 70
     0
  9
$DIMSHO
 70
     1
  9
$DIMSOXD
 70
     0
  9
$DIMSTYLE
  2
*UNNAMED
  9
$DIMTAD
 70
     1
  9
$DIMTFAC
 40
       1.000000
  9
$DIMTIH
 70
     0
  9
$DIMTIX
 70
     0
  9
$DIMTM
 40
        .000000
  9
$DIMTOFL
 70
     0
  9
$DIMTOH
 70
     0
  9
$DIMTOL
 70
     0
  9
$DIMTP
 40
        .000000
  9
$DIMTSZ
 40
        .000000
  9
$DIMTVP
 40
        .000000
  9
$DIMTXT
 40
       3.500000
  9
$DIMZIN
 70
     0
  9
$DRAGMODE
 70
     2
  9
$DWGCODEPAGE
  3
dos850
  9
$ELEVATION
 40
        .000000
  9
$EXTMAX
 10
    2712.468000
 20
    1900.000000
 30
        .000000
  9
$EXTMIN
 10
        .000000
 20
        .000000
 30
        .000000
  9
$FILLETRAD
 40
        .000000
  9
$FILLMODE
 70
     1
  9
$HANDLING
 70
     0
  9
$HANDSEED
  5
0
  9
$INSBASE
 10
        .000000
 20
        .000000
 30
        .000000
  9
$LIMCHECK
 70
     0
  9
$LIMMAX
 10
    2712.468000
 20
    1900.000000
  9
$LIMMIN
 10
        .000000
 20
        .000000
  9
$LTSCALE
 40
       1.000000
  9
$LUNITS
 70
     2
  9
$LUPREC
 70
     2
  9
$MAXACTVP
 70
    16
  9
$MENU
  1
ACAD
  9
$MIRRTEXT
 70
     0
  9
$ORTHOMODE
 70
     0
  9
$OSMODE
 70
     0
  9
$PDMODE
 70
     0
  9
$PDSIZE
 40
        .000000
  9
$PELEVATION
 40
        .000000
  9
$PEXTMAX
 10
    2712.468000
 20
    1900.000000
 30
        .000000
  9
$PEXTMIN
 10
        .000000
 20
        .000000
 30
        .000000
  9
$PINSBASE
 10
        .000000
 20
        .000000
 30
        .000000
  9
$PLIMCHECK
 70
     0
  9
$PLIMMAX
 10
    2712.468000
 20
    1900.000000
  9
$PLIMMIN
 10
        .000000
 20
        .000000
  9
$PLINEGEN
 70
     0
  9
$PLINEWID
 40
        .000000
  9
$PSLTSCALE
 70
     1
  9
$PUCSNAME
  2

  9
$PUCSORG
 10
        .000000
 20
        .000000
 30
        .000000
  9
$PUCSXDIR
 10
       1.000000
 20
        .000000
 30
        .000000
  9
$PUCSYDIR
 10
        .000000
 20
       1.000000
 30
        .000000
  9
$QTEXTMODE
 70
     0
  9
$REGENMODE
 70
     1
  9
$SHADEDGE
 70
     3
  9
$SHADEDIF
 70
    70
  9
$SKETCHINC
 40
       1.000000
  9
$SKPOLY
 70
     0
  9
$SPLFRAME
 70
     0
  9
$SPLINESEGS
 70
     8
  9
$SPLINETYPE
 70
     6
  9
$SURFTAB1
 70
     6
  9
$SURFTAB2
 70
     6
  9
$SURFTYPE
 70
     6
  9
$SURFU
 70
     6
  9
$SURFV
 70
     6
  9
$TDCREATE
 40
2452475.4902777780
  9
$TDINDWG
 40
        .000000
  9
$TDUPDATE
 40
2452475.4902777780
  9
$TDUSRTIMER
 40
        .000000
  9
$TEXTSIZE
 40
       3.500000
  9
$TEXTSTYLE
  7
STANDARD
  9
$THICKNESS
 40
        .000000
  9
$TILEMODE
 70
     1
  9
$TRACEWID
 40
       1.000000
  9
$TREEDEPTH
 70
 -3020
  9
$UCSNAME
  2

  9
$UCSORG
 10
        .000000
 20
        .000000
 30
        .000000
  9
$UCSXDIR
 10
       1.000000
 20
        .000000
 30
        .000000
  9
$UCSYDIR
 10
        .000000
 20
       1.000000
 30
        .000000
  9
$UNITMODE
 70
     0
  9
$USERI1
 70
     0
  9
$USERI2
 70
     0
  9
$USERI3
 70
     0
  9
$USERI4
 70
     0
  9
$USERI5
 70
     0
  9
$USERR1
 40
        .000000
  9
$USERR2
 40
        .000000
  9
$USERR3
 40
        .000000
  9
$USERR4
 40
        .000000
  9
$USERR5
 40
        .000000
  9
$USRTIMER
 70
     0
  9
$VISRETAIN
 70
     0
  9
$WORLDVIEW
 70
     1
  0
ENDSEC
  0
SECTION
  2
TABLES
  0
TABLE
  2
LTYPE
 70
    16
  0
LTYPE
  2
AUSGEZOGEN
 70
     0
  3
________________
 72
    65
 73
     0
 40
        .000000
  0
LTYPE
  2
VERDECKTE_KANTE
 70
     0
  3
____________
 72
    65
 73
     2
 40
2.5
 49
2.
 49
-0.5
  0
LTYPE
  2
HILFSLINIE
 70
     0
  3
________________
 72
    65
 73
     0
 40
        .000000
  0
LTYPE
  2
BRUCHLINIE
 70
     0
  3
________________
 72
    65
 73
     0
 40
        .000000
  0
LTYPE
  2
MITTELLINIE
 70
     0
  3
__________ _
 72
    65
 73
     4
 40
10.
 49
7.692
 49
-0.769
 49
0.769
 49
-0.769
  0
LTYPE
  2
SCHNITTLINIE
 70
     0
  3
__________ _
 72
    65
 73
     4
 40
10.
 49
7.692
 49
-0.769
 49
0.769
 49
-0.769
  0
LTYPE
  2
SCHWERLINIE
 70
     0
  3
__________ _
 72
    65
 73
     4
 40
10.
 49
7.692
 49
-0.769
 49
0.769
 49
-0.769
  0
LTYPE
  2
ENTWURFSLINIE
 70
     0
  3
_   _   _   _
 72
    65
 73
     8
 40
5.
 49
0.313
 49
-0.938
 49
0.313
 49
-0.938
 49
0.313
 49
-0.938
 49
0.313
 49
-0.938
  0
LTYPE
  2
SONDERLINIE1
 70
     0
  3
________________
 72
    65
 73
     0
 40
        .000000
  0
LTYPE
  2
SONDERLINIE2
 70
     0
  3
__________ _ _
 72
    65
 73
     6
 40
15.
 49
10.
 49
-1.
 49
1.
 49
-1.
 49
1.
 49
-1.
  0
LTYPE
  2
SONDERLINIE3
 70
     0
  3
_________ _ _ _
 72
    65
 73
     8
 40
16.
 49
9.
 49
-1.
 49
1.
 49
-1.
 49
1.
 49
-1.
 49
1.
 49
-1.
  0
LTYPE
  2
SONDERLINIE4
 70
     0
  3
_________ _ _ _
 72
    65
 73
     8
 40
16.
 49
9.
 49
-1.
 49
1.
 49
-1.
 49
1.
 49
-1.
 49
1.
 49
-1.
  0
LTYPE
  2
SONDERLINIE5
 70
     0
  3
________________
 72
    65
 73
     0
 40
        .000000
  0
LTYPE
  2
SONDERLINIE6
 70
     0
  3
_______ _ _ _ _
 72
    65
 73
    10
 40
16.
 49
7.
 49
-1.
 49
1.
 49
-1.
 49
1.
 49
-1.
 49
1.
 49
-1.
 49
1.
 49
-1.
  0
LTYPE
  2
SONDERLINIE7
 70
     0
  3
_____ _ _ _ _ _
 72
    65
 73
    12
 40
16.
 49
5.
 49
-1.
 49
1.
 49
-1.
 49
1.
 49
-1.
 49
1.
 49
-1.
 49
1.
 49
-1.
 49
1.
 49
-1.
  0
LTYPE
  2
SONDERLINIE8
 70
     0
  3
_____ _ _ _ _ _
 72
    65
 73
    12
 40
16.
 49
5.
 49
-1.
 49
1.
 49
-1.
 49
1.
 49
-1.
 49
1.
 49
-1.
 49
1.
 49
-1.
 49
1.
 49
-1.
  0
ENDTAB
  0
TABLE
  2
LAYER
 70
    31
  0
LAYER
  2
PUNKT
 62
     7
  6
AUSGEZOGEN
 70
    64
  0
LAYER
  2
SICHTBARE_KANTE
 62
     7
  6
AUSGEZOGEN
 70
    64
  0
LAYER
  2
VERDECKTE_KANTE
 62
     7
  6
AUSGEZOGEN
 70
    64
  0
LAYER
  2
HILFSLINIE
 62
     7
  6
AUSGEZOGEN
 70
    64
  0
LAYER
  2
BRUCHLINIE
 62
     7
  6
AUSGEZOGEN
 70
    64
  0
LAYER
  2
MITTELLINIE
 62
     7
  6
AUSGEZOGEN
 70
    64
  0
LAYER
  2
SCHNITTLINIE
 62
     7
  6
AUSGEZOGEN
 70
    64
  0
LAYER
  2
SCHWERLINIE
 62
     7
  6
AUSGEZOGEN
 70
    64
  0
LAYER
  2
ENTWURFSLINIE
 62
     7
  6
AUSGEZOGEN
 70
    64
  0
LAYER
  2
SONDERLINIE1
 62
     7
  6
AUSGEZOGEN
 70
    64
  0
LAYER
  2
SONDERLINIE2
 62
     7
  6
AUSGEZOGEN
 70
    64
  0
LAYER
  2
SONDERLINIE3
 62
     7
  6
AUSGEZOGEN
 70
    64
  0
LAYER
  2
SONDERLINIE4
 62
     7
  6
AUSGEZOGEN
 70
    64
  0
LAYER
  2
SONDERLINIE5
 62
     7
  6
AUSGEZOGEN
 70
    64
  0
LAYER
  2
SONDERLINIE6
 62
     7
  6
AUSGEZOGEN
 70
    64
  0
LAYER
  2
SONDERLINIE7
 62
     7
  6
AUSGEZOGEN
 70
    64
  0
LAYER
  2
SONDERLINIE8
 62
     7
  6
AUSGEZOGEN
 70
    64
  0
LAYER
  2
TEXT
 62
     7
  6
AUSGEZOGEN
 70
    64
  0
LAYER
  2
SCHRAFFUR
 62
     7
  6
AUSGEZOGEN
 70
    64
  0
LAYER
  2
SYMBOLE
 62
     7
  6
AUSGEZOGEN
 70
    64
  0
LAYER
  2
FERTIGUNGSBEMASSUNG
 62
     7
  6
AUSGEZOGEN
 70
    64
  0
LAYER
  2
TOPOLOGIEBEMASSUNG
 62
     7
  6
AUSGEZOGEN
 70
    64
  0
LAYER
  2
OBERFLAECHENZEICHEN
 62
     7
  6
AUSGEZOGEN
 70
    64
  0
LAYER
  2
FORM-LAGE-TOLERANZEN
 62
     7
  6
AUSGEZOGEN
 70
    64
  0
LAYER
  2
SCHWEISSZEICHEN
 62
     7
  6
AUSGEZOGEN
 70
    64
  0
LAYER
  2
FUNKTIONSBEMASSUNG
 62
     7
  6
AUSGEZOGEN
 70
    64
  0
LAYER
  2
PRUEFBEMASSUNG
 62
     7
  6
AUSGEZOGEN
 70
    64
  0
LAYER
  2
MONTAGEBEMASSUNG
 62
     7
  6
AUSGEZOGEN
 70
    64
  0
LAYER
  2
BG_FORM-LAGE-TOLERANZEN
 62
     7
  6
AUSGEZOGEN
 70
    64
  0
LAYER
  2
BG_SCHWEISSZEICHEN
 62
     7
  6
AUSGEZOGEN
 70
    64
  0
LAYER
  2
0
 62
     7
  6
AUSGEZOGEN
 70
    64
  0
ENDTAB
  0
TABLE
  2
STYLE
 70
     0
  0
STYLE
  2
STANDARD
 70
     0
 40
     0
 41
       1.000000
 50
        .000000
 71
     0
 42
       3.500000
  3
isocp
  4

  0
ENDTAB
  0
TABLE
  2
VIEW
 70
     0
  0
ENDTAB
  0
TABLE
  2
VPORT
 70
     2
  0
VPORT
  2
*ACTIVE
 70
     0
 10
        .000000
 20
        .000000
 11
       1.000000
 21
       1.000000
 12
    1356.234000
 22
     950.000000
 13
        .000000
 23
        .000000
 14
       1.000000
 24
       1.000000
 15
        .000000
 25
        .000000
 16
        .000000
 26
        .000000
 36
       1.000000
 17
        .000000
 27
        .000000
 37
        .000000
 40
    1900.000000
 41
       1.427615
 42
      50.000000
 43
        .000000
 44
        .000000
 50
        .000000
 51
        .000000
 71
     0
 72
   100
 73
     1
 74
     1
 75
     0
 76
     0
 77
     0
 78
     0
  0
ENDTAB
  0
TABLE
  2
DIMSTYLE
 70
     1
  0
DIMSTYLE
  2
STDBEM
 70
     0
  3

  4

  5

  6

  7

 40
       1.000000
 41
       3.500000
 42
        .100000
 43
       7.000000
 44
       1.800000
 45
        .000000
 46
        .000000
 47
        .000000
 48
        .000000
140
       3.500000
141
       1.500000
142
        .000000
143
      25.400000
144
       1.000000
145
        .000000
146
       1.000000
147
        .090000
 71
     0
 72
     0
 73
     0
 74
     0
 75
     0
 76
     0
 77
     1
 78
     0
170
     0
171
     2
172
     0
173
     0
174
     0
175
     0
176
     0
177
     0
178
     0
  0
ENDTAB
  0
ENDSEC
  0
SECTION
  2
BLOCKS
  0
ENDSEC
  0
SECTION
  2
ENTITIES
  0
ARC
  8
VERDECKTE_KANTE
  6
VERDECKTE_KANTE
 62
     7
 10
     307.538100
 20
    1656.613000
 40
      40.000000
 50
     194.998200
 51
     201.686700
  0
ARC
  8
VERDECKTE_KANTE
  6
VERDECKTE_KANTE
 62
     7
 10
    1607.538000
 20
    1656.613000
 40
      40.000000
 50
     194.998400
 51
     201.686700
  0
LINE
  8
HILFSLINIE
  6
HILFSLINIE
 62
     8
 10
     315.000000
 20
     800.000000
 11
     315.000000
 21
     925.000000
  0
LINE
  8
HILFSLINIE
  6
HILFSLINIE
 62
     8
 10
     825.000000
 20
     985.000000
 11
     375.000000
 21
     985.000000
  0
LINE
  8
HILFSLINIE
  6
HILFSLINIE
 62
     8
 10
     885.000000
 20
     475.000000
 11
     885.000000
 21
     925.000000
  0
LINE
  8
HILFSLINIE
  6
HILFSLINIE
 62
     8
 10
     825.000000
 20
     415.000000
 11
     700.000000
 21
     415.000000
  0
LINE
  8
HILFSLINIE
  6
HILFSLINIE
 62
     8
 10
     980.000000
 20
    1091.000000
 11
     220.000000
 21
    1091.000000
  0
LINE
  8
HILFSLINIE
  6
HILFSLINIE
 62
     8
 10
     991.000000
 20
     320.000000
 11
     990.999900
 21
    1080.000000
  0
LINE
  8
HILFSLINIE
  6
HILFSLINIE
 62
     8
 10
     980.000000
 20
     309.000000
 11
     700.000000
 21
     309.000000
  0
LINE
  8
HILFSLINIE
  6
HILFSLINIE
 62
     8
 10
     209.000000
 20
     800.000000
 11
     209.000000
 21
    1080.000000
  0
LINE
  8
HILFSLINIE
  6
HILFSLINIE
 62
     8
 10
    2526.334000
 20
     700.000000
 11
    1299.666000
 21
     700.000000
  0
ARC
  8
HILFSLINIE
  6
HILFSLINIE
 62
     8
 10
     375.000000
 20
     925.000000
 40
      60.000000
 50
      90.000000
 51
     180.000000
  0
ARC
  8
HILFSLINIE
  6
HILFSLINIE
 62
     8
 10
     825.000000
 20
     925.000000
 40
      60.000000
 50
        .000000
 51
      90.000000
  0
ARC
  8
HILFSLINIE
  6
HILFSLINIE
 62
     8
 10
     825.000000
 20
     475.000000
 40
      60.000000
 50
     270.000000
 51
        .000000
  0
ARC
  8
HILFSLINIE
  6
HILFSLINIE
 62
     8
 10
     700.000000
 20
     800.000000
 40
     385.000000
 50
     180.000000
 51
     270.000000
  0
ARC
  8
HILFSLINIE
  6
HILFSLINIE
 62
     8
 10
     980.000000
 20
    1080.000000
 40
      10.999880
 50
        .000000
 51
      90.000000
  0
ARC
  8
HILFSLINIE
  6
HILFSLINIE
 62
     8
 10
     700.000000
 20
     800.000000
 40
     491.000000
 50
     180.000000
 51
     270.000000
  0
ARC
  8
HILFSLINIE
  6
HILFSLINIE
 62
     8
 10
     220.000000
 20
    1080.000000
 40
      11.000000
 50
      90.000000
 51
     180.000000
  0
ARC
  8
HILFSLINIE
  6
HILFSLINIE
 62
     8
 10
     980.000000
 20
     320.000000
 40
      11.000000
 50
     270.000000
 51
        .000000
  0
CIRCLE
  8
HILFSLINIE
  6
HILFSLINIE
 62
     8
 10
     810.000000
 20
     490.000000
 40
      57.000000
  0
LINE
  8
MITTELLINIE
  6
MITTELLINIE
 62
     8
 10
     810.000000
 20
     556.000000
 11
     810.000000
 21
     424.000000
  0
LINE
  8
MITTELLINIE
  6
MITTELLINIE
 62
     8
 10
     744.000000
 20
     490.000000
 11
     876.000000
 21
     490.000000
  0
LINE
  8
MITTELLINIE
  6
MITTELLINIE
 62
     8
 10
    1060.000000
 20
     700.000000
 11
     140.000000
 21
     700.000000
  0
LINE
  8
MITTELLINIE
  6
MITTELLINIE
 62
     8
 10
     600.000000
 20
     240.000000
 11
     600.000000
 21
    1160.000000
  0
LINE
  8
MITTELLINIE
  6
MITTELLINIE
 62
     8
 10
     810.000000
 20
    1641.332000
 11
     810.000000
 21
    1576.332000
  0
LINE
  8
MITTELLINIE
  6
MITTELLINIE
 62
     8
 10
    2110.000000
 20
    1641.332000
 11
    2110.000000
 21
    1576.332000
  0
TEXT
  8
TEXT
  6
AUSGEZOGEN
 62
     7
 10
    1346.332000
 20
     566.671900
 40
      66.666660
 50
        .000065
 51
        .000000
 41
        .919239
  1
511
 72
     3
 11
    1437.332000
 21
     566.672000
  0
TEXT
  8
TEXT
  6
AUSGEZOGEN
 62
     7
 10
    2012.999000
 20
     566.671900
 40
      66.666660
 50
        .000054
 51
        .000000
 41
        .919239
  1
800
 72
     3
 11
    2125.666000
 21
     566.672000
  0
TEXT
  8
TEXT
  6
AUSGEZOGEN
 62
     7
 10
    1346.332000
 20
     766.671900
 40
      66.666660
 50
        .000062
 51
        .000000
 41
        .919239
  1
Modell
 72
     3
 11
    1554.332000
 21
     766.672100
  0
TEXT
  8
TEXT
  6
AUSGEZOGEN
 62
     7
 10
    1679.665000
 20
     766.671900
 40
      66.666660
 50
        .000054
 51
        .000000
 41
        .919239
  1
Laenge
 72
     3
 11
    1923.632000
 21
     766.672100
  0
TEXT
  8
TEXT
  6
AUSGEZOGEN
 62
     7
 10
    2012.998000
 20
     766.671900
 40
      66.666660
 50
        .000065
 51
        .000000
 41
        .919239
  1
Breite
 72
     3
 11
    2211.768000
 21
     766.672100
  0
TEXT
  8
TEXT
  6
AUSGEZOGEN
 62
     7
 10
    2346.332000
 20
     766.671900
 40
      66.666660
 50
        .000038
 51
        .000000
 41
        .919239
  1
Tiefe
 72
     3
 11
    2513.165000
 21
     766.672000
  0
TEXT
  8
TEXT
  6
AUSGEZOGEN
 62
     7
 10
    1679.666000
 20
     566.671900
 40
      66.666660
 50
        .000054
 51
        .000000
 41
        .919239
  1
800
 72
     3
 11
    1792.333000
 21
     566.672000
  0
TEXT
  8
TEXT
  6
AUSGEZOGEN
 62
     7
 10
    2346.332000
 20
     566.671900
 40
      66.666660
 50
        .000081
 51
        .000000
 41
        .919239
  1
65
 72
     3
 11
    2415.665000
 21
     566.672000
  0
TEXT
  8
TEXT
  6
AUSGEZOGEN
 62
     7
 10
    1635.999000
 20
     933.335900
 40
     100.000000
 50
        .000044
 51
        .000000
 41
        .754247
  1
ZIRKON
 72
     3
 11
    1929.332000
 21
     933.336200
  0
LINE
  8
SICHTBARE_KANTE
  6
AUSGEZOGEN
 62
     7
 10
     255.000000
 20
     800.000000
 11
     255.000000
 21
     925.000000
  0
LINE
  8
SICHTBARE_KANTE
  6
AUSGEZOGEN
 62
     7
 10
     825.000000
 20
    1045.000000
 11
     375.000000
 21
    1045.000000
  0
LINE
  8
SICHTBARE_KANTE
  6
AUSGEZOGEN
 62
     7
 10
     945.000000
 20
     475.000000
 11
     945.000000
 21
     925.000000
  0
LINE
  8
SICHTBARE_KANTE
  6
AUSGEZOGEN
 62
     7
 10
     825.000000
 20
     355.000000
 11
     700.000000
 21
     355.000000
  0
LINE
  8
SICHTBARE_KANTE
  6
AUSGEZOGEN
 62
     7
 10
     200.000000
 20
     800.000000
 11
     200.000000
 21
    1080.000000
  0
LINE
  8
SICHTBARE_KANTE
  6
AUSGEZOGEN
 62
     7
 10
     980.000000
 20
    1100.000000
 11
     220.000000
 21
    1100.000000
  0
LINE
  8
SICHTBARE_KANTE
  6
AUSGEZOGEN
 62
     7
 10
    1000.000000
 20
     320.000000
 11
    1000.000000
 21
    1080.000000
  0
LINE
  8
SICHTBARE_KANTE
  6
AUSGEZOGEN
 62
     7
 10
     980.000000
 20
     300.000000
 11
     700.000000
 21
     300.000000
  0
LINE
  8
SICHTBARE_KANTE
  6
AUSGEZOGEN
 62
     7
 10
     209.000000
 20
    1673.832000
 11
     991.000000
 21
    1673.832000
  0
LINE
  8
SICHTBARE_KANTE
  6
AUSGEZOGEN
 62
     7
 10
    1000.000000
 20
    1664.832000
 11
    1000.000000
 21
    1647.832000
  0
LINE
  8
SICHTBARE_KANTE
  6
AUSGEZOGEN
 62
     7
 10
     200.000000
 20
    1647.832000
 11
     200.000000
 21
    1664.832000
  0
LINE
  8
SICHTBARE_KANTE
  6
AUSGEZOGEN
 62
     7
 10
     306.839800
 20
    1616.621000
 11
     753.000000
 21
    1608.832000
  0
LINE
  8
SICHTBARE_KANTE
  6
AUSGEZOGEN
 62
     7
 10
     753.000000
 20
    1608.832000
 11
     867.000000
 21
    1608.832000
  0
LINE
  8
SICHTBARE_KANTE
  6
AUSGEZOGEN
 62
     7
 10
     867.000000
 20
    1608.832000
 11
     891.096200
 21
    1609.465000
  0
LINE
  8
SICHTBARE_KANTE
  6
AUSGEZOGEN
 62
     7
 10
     928.686000
 20
    1639.098000
 11
     929.418900
 21
    1641.832000
  0
LINE
  8
SICHTBARE_KANTE
  6
AUSGEZOGEN
 62
     7
 10
     206.000000
 20
    1641.832000
 11
     994.000000
 21
    1641.832000
  0
LINE
  8
SICHTBARE_KANTE
  6
AUSGEZOGEN
 62
     7
 10
     753.000000
 20
    1608.832000
 11
     765.000000
 21
    1596.832000
  0
LINE
  8
SICHTBARE_KANTE
  6
AUSGEZOGEN
 62
     7
 10
     765.000000
 20
    1596.832000
 11
     855.000000
 21
    1596.832000
  0
LINE
  8
SICHTBARE_KANTE
  6
AUSGEZOGEN
 62
     7
 10
     855.000000
 20
    1596.832000
 11
     867.000000
 21
    1608.832000
  0
LINE
  8
SICHTBARE_KANTE
  6
AUSGEZOGEN
 62
     7
 10
    1509.000000
 20
    1673.832000
 11
    2291.000000
 21
    1673.832000
  0
LINE
  8
SICHTBARE_KANTE
  6
AUSGEZOGEN
 62
     7
 10
    2300.000000
 20
    1664.832000
 11
    2300.000000
 21
    1647.832000
  0
LINE
  8
SICHTBARE_KANTE
  6
AUSGEZOGEN
 62
     7
 10
    1500.000000
 20
    1647.832000
 11
    1500.000000
 21
    1664.832000
  0
LINE
  8
SICHTBARE_KANTE
  6
AUSGEZOGEN
 62
     7
 10
    1606.840000
 20
    1616.621000
 11
    2053.000000
 21
    1608.832000
  0
LINE
  8
SICHTBARE_KANTE
  6
AUSGEZOGEN
 62
     7
 10
    2053.000000
 20
    1608.832000
 11
    2167.000000
 21
    1608.832000
  0
LINE
  8
SICHTBARE_KANTE
  6
AUSGEZOGEN
 62
     7
 10
    2167.000000
 20
    1608.832000
 11
    2191.096000
 21
    1609.465000
  0
LINE
  8
SICHTBARE_KANTE
  6
AUSGEZOGEN
 62
     7
 10
    2228.686000
 20
    1639.098000
 11
    2229.419000
 21
    1641.832000
  0
LINE
  8
SICHTBARE_KANTE
  6
AUSGEZOGEN
 62
     7
 10
    1506.000000
 20
    1641.832000
 11
    2294.000000
 21
    1641.832000
  0
LINE
  8
SICHTBARE_KANTE
  6
AUSGEZOGEN
 62
     7
 10
    2053.000000
 20
    1608.832000
 11
    2065.000000
 21
    1596.832000
  0
LINE
  8
SICHTBARE_KANTE
  6
AUSGEZOGEN
 62
     7
 10
    2065.000000
 20
    1596.832000
 11
    2155.000000
 21
    1596.832000
  0
LINE
  8
SICHTBARE_KANTE
  6
AUSGEZOGEN
 62
     7
 10
    2155.000000
 20
    1596.832000
 11
    2167.000000
 21
    1608.832000
  0
ARC
  8
SICHTBARE_KANTE
  6
AUSGEZOGEN
 62
     7
 10
     375.000000
 20
     925.000000
 40
     120.000000
 50
      90.000000
 51
     180.000000
  0
ARC
  8
SICHTBARE_KANTE
  6
AUSGEZOGEN
 62
     7
 10
     825.000000
 20
     925.000000
 40
     120.000000
 50
        .000000
 51
      90.000000
  0
ARC
  8
SICHTBARE_KANTE
  6
AUSGEZOGEN
 62
     7
 10
     825.000000
 20
     475.000000
 40
     120.000000
 50
     270.000000
 51
        .000000
  0
ARC
  8
SICHTBARE_KANTE
  6
AUSGEZOGEN
 62
     7
 10
     700.000000
 20
     800.000000
 40
     445.000000
 50
     180.000000
 51
     270.000000
  0
ARC
  8
SICHTBARE_KANTE
  6
AUSGEZOGEN
 62
     7
 10
     220.000000
 20
    1080.000000
 40
      20.000000
 50
      90.000000
 51
     180.000000
  0
ARC
  8
SICHTBARE_KANTE
  6
AUSGEZOGEN
 62
     7
 10
     980.000000
 20
    1080.000000
 40
      20.000000
 50
        .000000
 51
      90.000000
  0
ARC
  8
SICHTBARE_KANTE
  6
AUSGEZOGEN
 62
     7
 10
     980.000000
 20
     320.000000
 40
      20.000000
 50
     270.000000
 51
        .000000
  0
ARC
  8
SICHTBARE_KANTE
  6
AUSGEZOGEN
 62
     7
 10
     700.000000
 20
     800.000000
 40
     500.000000
 50
     180.000000
 51
     270.000000
  0
ARC
  8
SICHTBARE_KANTE
  6
AUSGEZOGEN
 62
     7
 10
     307.538100
 20
    1656.613000
 40
      40.000000
 50
     201.686700
 51
     268.999800
  0
ARC
  8
SICHTBARE_KANTE
  6
AUSGEZOGEN
 62
     7
 10
     890.049300
 20
    1649.449000
 40
      40.000000
 50
     271.499800
 51
     345.001400
  0
ARC
  8
SICHTBARE_KANTE
  6
AUSGEZOGEN
 62
     7
 10
     209.000000
 20
    1664.832000
 40
       8.999999
 50
      90.000000
 51
     180.000000
  0
ARC
  8
SICHTBARE_KANTE
  6
AUSGEZOGEN
 62
     7
 10
     991.000000
 20
    1664.832000
 40
       8.999999
 50
        .000000
 51
      90.000000
  0
ARC
  8
SICHTBARE_KANTE
  6
AUSGEZOGEN
 62
     7
 10
     994.000000
 20
    1647.832000
 40
       6.000000
 50
     270.000000
 51
        .000000
  0
ARC
  8
SICHTBARE_KANTE
  6
AUSGEZOGEN
 62
     7
 10
     206.000000
 20
    1647.832000
 40
       6.000000
 50
     180.000000
 51
     270.000000
  0
ARC
  8
SICHTBARE_KANTE
  6
AUSGEZOGEN
 62
     7
 10
    1607.538000
 20
    1656.613000
 40
      40.000000
 50
     201.686700
 51
     268.999800
  0
ARC
  8
SICHTBARE_KANTE
  6
AUSGEZOGEN
 62
     7
 10
    2190.049000
 20
    1649.449000
 40
      40.000000
 50
     271.499700
 51
     345.001400
  0
ARC
  8
SICHTBARE_KANTE
  6
AUSGEZOGEN
 62
     7
 10
    1509.000000
 20
    1664.832000
 40
       8.999999
 50
      90.000000
 51
     180.000000
  0
ARC
  8
SICHTBARE_KANTE
  6
AUSGEZOGEN
 62
     7
 10
    2291.000000
 20
    1664.832000
 40
       8.999999
 50
        .000000
 51
      90.000000
  0
ARC
  8
SICHTBARE_KANTE
  6
AUSGEZOGEN
 62
     7
 10
    2294.000000
 20
    1647.832000
 40
       6.000000
 50
     270.000000
 51
        .000000
  0
ARC
  8
SICHTBARE_KANTE
  6
AUSGEZOGEN
 62
     7
 10
    1506.000000
 20
    1647.832000
 40
       6.000000
 50
     180.000000
 51
     270.000000
  0
CIRCLE
  8
SICHTBARE_KANTE
  6
AUSGEZOGEN
 62
     7
 10
     810.000000
 20
     490.000000
 40
      45.000000
  0
ENDSEC
  0
EOF
