  0
SECTION
  2
HEADER
  9
$ACADVER
  1
AC1009
  9
$ANGBASE
 50
       0.000000
  9
$ANGDIR
 70
     0
  9
$ATTDIA
 70
     0
  9
$ATTMODE
 70
     0
  9
$ATTREQ
 70
     0
  9
$AUNITS
 70
     0
  9
$AUPREC
 70
     1
  9
$BLIPMODE
 70
     1
  9
$CECOLOR
 62
   256
  9
$CELTYPE
  6
BYLAYER
  9
$CHAMFERA
 40
       0.000000
  9
$CHAMFERB
 40
       0.000000
  9
$CLAYER
  8
0
  9
$COORDS
 70
     1
  9
$DIMALT
 70
     0
  9
$DIMALTD
 70
     2
  9
$DIMALTF
 40
      25.400000
  9
$DIMAPOST
  1

  9
$DIMASO
 70
     0
  9
$DIMASZ
 40
       3.500000
  9
$DIMBLK
  1

  9
$DIMBLK1
  1

  9
$DIMBLK2
  1

  9
$DIMCEN
 40
       1.500000
  9
$DIMCLRD
 70
     0
  9
$DIMCLRE
 70
     0
  9
$DIMCLRT
 70
     0
  9
$DIMDLE
 40
       0.000000
  9
$DIMDLI
 40
       7.000000
  9
$DIMEXE
 40
       1.800000
  9
$DIMEXO
 40
       0.100000
  9
$DIMGAP
 40
       0.090000
  9
$DIMLFAC
 40
       1.000000
  9
$DIMLIM
 70
     0
  9
$DIMPOST
  1

  9
$DIMRND
 40
       0.000000
  9
$DIMSAH
 70
     0
  9
$DIMSCALE
 40
       1.000000
  9
$DIMSE1
 70
     0
  9
$DIMSE2
 70
     0
  9
$DIMSHO
 70
     1
  9
$DIMSOXD
 70
     0
  9
$DIMSTYLE
  2
*UNNAMED
  9
$DIMTAD
 70
     1
  9
$DIMTFAC
 40
       1.000000
  9
$DIMTIH
 70
     0
  9
$DIMTIX
 70
     0
  9
$DIMTM
 40
       0.000000
  9
$DIMTOFL
 70
     0
  9
$DIMTOH
 70
     0
  9
$DIMTOL
 70
     0
  9
$DIMTP
 40
       0.000000
  9
$DIMTSZ
 40
       0.000000
  9
$DIMTVP
 40
       0.000000
  9
$DIMTXT
 40
       3.500000
  9
$DIMZIN
 70
     0
  9
$DRAGMODE
 70
     2
  9
$DWGCODEPAGE
  3
dos850
  9
$ELEVATION
 40
       0.000000
  9
$EXTMAX
 10
    2361.556396
 20
    1749.016602
 30
       0.000000
  9
$EXTMIN
 10
       0.000000
 20
       0.000000
 30
       0.000000
  9
$FILLETRAD
 40
       0.000000
  9
$FILLMODE
 70
     1
  9
$HANDLING
 70
     0
  9
$HANDSEED
  5
0
  9
$INSBASE
 10
       0.000000
 20
       0.000000
 30
       0.000000
  9
$LIMCHECK
 70
     0
  9
$LIMMAX
 10
    2361.556396
 20
    1749.016602
  9
$LIMMIN
 10
       0.000000
 20
       0.000000
  9
$LTSCALE
 40
       1.000000
  9
$LUNITS
 70
     2
  9
$LUPREC
 70
     2
  9
$MAXACTVP
 70
    16
  9
$MENU
  1
ACAD
  9
$MIRRTEXT
 70
     0
  9
$ORTHOMODE
 70
     0
  9
$OSMODE
 70
     0
  9
$PDMODE
 70
     0
  9
$PDSIZE
 40
       0.000000
  9
$PELEVATION
 40
       0.000000
  9
$PEXTMAX
 10
    2361.556396
 20
    1749.016602
 30
       0.000000
  9
$PEXTMIN
 10
       0.000000
 20
       0.000000
 30
       0.000000
  9
$PINSBASE
 10
       0.000000
 20
       0.000000
 30
       0.000000
  9
$PLIMCHECK
 70
     0
  9
$PLIMMAX
 10
    2361.556396
 20
    1749.016602
  9
$PLIMMIN
 10
       0.000000
 20
       0.000000
  9
$PLINEGEN
 70
     0
  9
$PLINEWID
 40
       0.000000
  9
$PSLTSCALE
 70
     1
  9
$PUCSNAME
  2

  9
$PUCSORG
 10
       0.000000
 20
       0.000000
 30
       0.000000
  9
$PUCSXDIR
 10
       1.000000
 20
       0.000000
 30
       0.000000
  9
$PUCSYDIR
 10
       0.000000
 20
       1.000000
 30
       0.000000
  9
$QTEXTMODE
 70
     0
  9
$REGENMODE
 70
     1
  9
$SHADEDGE
 70
     3
  9
$SHADEDIF
 70
    70
  9
$SKETCHINC
 40
       1.000000
  9
$SKPOLY
 70
     0
  9
$SPLFRAME
 70
     0
  9
$SPLINESEGS
 70
     8
  9
$SPLINETYPE
 70
     6
  9
$SURFTAB1
 70
     6
  9
$SURFTAB2
 70
     6
  9
$SURFTYPE
 70
     6
  9
$SURFU
 70
     6
  9
$SURFV
 70
     6
  9
$TDCREATE
 40
2453461.5659722220
  9
$TDINDWG
 40
       0.000000
  9
$TDUPDATE
 40
2453461.5659722220
  9
$TDUSRTIMER
 40
       0.000000
  9
$TEXTSIZE
 40
       3.500000
  9
$TEXTSTYLE
  7
STANDARD
  9
$THICKNESS
 40
       0.000000
  9
$TILEMODE
 70
     1
  9
$TRACEWID
 40
       1.000000
  9
$TREEDEPTH
 70
 -3020
  9
$UCSNAME
  2

  9
$UCSORG
 10
       0.000000
 20
       0.000000
 30
       0.000000
  9
$UCSXDIR
 10
       1.000000
 20
       0.000000
 30
       0.000000
  9
$UCSYDIR
 10
       0.000000
 20
       1.000000
 30
       0.000000
  9
$UNITMODE
 70
     0
  9
$USERI1
 70
     0
  9
$USERI2
 70
     0
  9
$USERI3
 70
     0
  9
$USERI4
 70
     0
  9
$USERI5
 70
     0
  9
$USERR1
 40
       0.000000
  9
$USERR2
 40
       0.000000
  9
$USERR3
 40
       0.000000
  9
$USERR4
 40
       0.000000
  9
$USERR5
 40
       0.000000
  9
$USRTIMER
 70
     0
  9
$VISRETAIN
 70
     0
  9
$WORLDVIEW
 70
     1
  0
ENDSEC
  0
SECTION
  2
TABLES
  0
TABLE
  2
LTYPE
 70
    16
  0
LTYPE
  2
AUSGEZOGEN
 70
     0
  3
________________
 72
    65
 73
     0
 40
       0.000000
  0
LTYPE
  2
VERDECKTE_KANTE
 70
     0
  3
____________
 72
    65
 73
     2
 40
5.
 49
4.
 49
-1.
  0
LTYPE
  2
HILFSLINIE
 70
     0
  3
________________
 72
    65
 73
     0
 40
       0.000000
  0
LTYPE
  2
BRUCHLINIE
 70
     0
  3
________________
 72
    65
 73
     0
 40
       0.000000
  0
LTYPE
  2
MITTELLINIE
 70
     0
  3
__________ _
 72
    65
 73
     4
 40
13.
 49
10.
 49
-1.
 49
1.
 49
-1.
  0
LTYPE
  2
SCHNITTLINIE
 70
     0
  3
__________ _
 72
    65
 73
     4
 40
13.
 49
10.
 49
-1.
 49
1.
 49
-1.
  0
LTYPE
  2
SCHWERLINIE
 70
     0
  3
__________ _ _
 72
    65
 73
     6
 40
15.
 49
10.
 49
-1.
 49
1.
 49
-1.
 49
1.
 49
-1.
  0
LTYPE
  2
ENTWURFSLINIE
 70
     0
  3
_   _   _   _
 72
    65
 73
     8
 40
16.
 49
1.
 49
-3.
 49
1.
 49
-3.
 49
1.
 49
-3.
 49
1.
 49
-3.
  0
LTYPE
  2
SONDERLINIE1
 70
     0
  3
________________
 72
    65
 73
     0
 40
       0.000000
  0
LTYPE
  2
SONDERLINIE2
 70
     0
  3
__________ _ _
 72
    65
 73
     6
 40
15.
 49
10.
 49
-1.
 49
1.
 49
-1.
 49
1.
 49
-1.
  0
LTYPE
  2
SONDERLINIE3
 70
     0
  3
_________ _ _ _
 72
    65
 73
     8
 40
16.
 49
9.
 49
-1.
 49
1.
 49
-1.
 49
1.
 49
-1.
 49
1.
 49
-1.
  0
LTYPE
  2
SONDERLINIE4
 70
     0
  3
_________ _ _ _
 72
    65
 73
     8
 40
16.
 49
9.
 49
-1.
 49
1.
 49
-1.
 49
1.
 49
-1.
 49
1.
 49
-1.
  0
LTYPE
  2
SONDERLINIE5
 70
     0
  3
_______ _ _ _ _
 72
    65
 73
    10
 40
16.
 49
7.
 49
-1.
 49
1.
 49
-1.
 49
1.
 49
-1.
 49
1.
 49
-1.
 49
1.
 49
-1.
  0
LTYPE
  2
SONDERLINIE6
 70
     0
  3
_______ _ _ _ _
 72
    65
 73
    10
 40
16.
 49
7.
 49
-1.
 49
1.
 49
-1.
 49
1.
 49
-1.
 49
1.
 49
-1.
 49
1.
 49
-1.
  0
LTYPE
  2
SONDERLINIE7
 70
     0
  3
_____ _ _ _ _ _
 72
    65
 73
    12
 40
16.
 49
5.
 49
-1.
 49
1.
 49
-1.
 49
1.
 49
-1.
 49
1.
 49
-1.
 49
1.
 49
-1.
 49
1.
 49
-1.
  0
LTYPE
  2
SONDERLINIE8
 70
     0
  3
_____ _ _ _ _ _
 72
    65
 73
    12
 40
16.
 49
5.
 49
-1.
 49
1.
 49
-1.
 49
1.
 49
-1.
 49
1.
 49
-1.
 49
1.
 49
-1.
 49
1.
 49
-1.
  0
ENDTAB
  0
TABLE
  2
LAYER
 70
     1
  0
LAYER
  2
0
 62
     7
  6
AUSGEZOGEN
 70
    64
  0
ENDTAB
  0
TABLE
  2
STYLE
 70
     0
  0
STYLE
  2
STANDARD
 70
     0
 40
     0
 41
       1.000000
 50
       0.000000
 71
     0
 42
       3.500000
  3
isocp
  4

  0
ENDTAB
  0
TABLE
  2
VIEW
 70
     0
  0
ENDTAB
  0
TABLE
  2
VPORT
 70
     2
  0
VPORT
  2
*ACTIVE
 70
     0
 10
       0.000000
 20
       0.000000
 11
       1.000000
 21
       1.000000
 12
    1180.778198
 22
     874.508301
 13
       0.000000
 23
       0.000000
 14
       1.000000
 24
       1.000000
 15
       0.000000
 25
       0.000000
 16
       0.000000
 26
       0.000000
 36
       1.000000
 17
       0.000000
 27
       0.000000
 37
       0.000000
 40
    1749.016602
 41
       1.350219
 42
      50.000000
 43
       0.000000
 44
       0.000000
 50
       0.000000
 51
       0.000000
 71
     0
 72
   100
 73
     1
 74
     1
 75
     0
 76
     0
 77
     0
 78
     0
  0
ENDTAB
  0
TABLE
  2
DIMSTYLE
 70
     1
  0
DIMSTYLE
  2
STDBEM
 70
     0
  3

  4

  5

  6

  7

 40
       1.000000
 41
       3.500000
 42
       0.100000
 43
       7.000000
 44
       1.800000
 45
       0.000000
 46
       0.000000
 47
       0.000000
 48
       0.000000
140
       3.500000
141
       1.500000
142
       0.000000
143
      25.400000
144
       1.000000
145
       0.000000
146
       1.000000
147
       0.090000
 71
     0
 72
     0
 73
     0
 74
     0
 75
     0
 76
     0
 77
     1
 78
     0
170
     0
171
     2
172
     0
173
     0
174
     0
175
     0
176
     0
177
     0
178
     0
  0
ENDTAB
  0
ENDSEC
  0
SECTION
  2
BLOCKS
  0
ENDSEC
  0
SECTION
  2
ENTITIES
  0
LINE
  8
0
  6
HILFSLINIE
 62
     8
 10
    1151.402588
 20
     803.728027
 11
    2338.402588
 21
     803.728027
  0
LINE
  8
0
  6
HILFSLINIE
 62
     8
 10
     748.152405
 20
    1109.241577
 11
     198.152481
 21
    1109.241577
  0
LINE
  8
0
  6
HILFSLINIE
 62
     8
 10
     828.152100
 20
     479.241882
 11
     828.152344
 21
    1029.241577
  0
LINE
  8
0
  6
HILFSLINIE
 62
     8
 10
     748.152405
 20
     399.241943
 11
     523.152527
 21
     399.241943
  0
LINE
  8
0
  6
HILFSLINIE
 62
     8
 10
     118.152527
 20
     804.241699
 11
     118.152527
 21
    1029.241577
  0
LINE
  8
0
  6
HILFSLINIE
 62
     8
 10
      32.152576
 20
     804.241699
 11
      32.152576
 21
    1184.241455
  0
LINE
  8
0
  6
HILFSLINIE
 62
     8
 10
     903.152283
 20
     313.241974
 11
     523.152527
 21
     313.241974
  0
LINE
  8
0
  6
HILFSLINIE
 62
     8
 10
     914.152283
 20
     324.241974
 11
     914.152283
 21
    1184.241455
  0
LINE
  8
0
  6
HILFSLINIE
 62
     8
 10
     903.152283
 20
    1195.241455
 11
      43.152569
 21
    1195.241455
  0
LINE
  8
0
  6
HILFSLINIE
 62
     8
 10
     523.137390
 20
    1428.036255
 11
     523.137390
 21
    1410.036255
  0
LINE
  8
0
  6
HILFSLINIE
 62
     8
 10
    1423.166138
 20
    1428.036255
 11
    1423.166138
 21
    1410.036255
  0
ARC
  8
0
  6
HILFSLINIE
 62
     8
 10
     198.152481
 20
    1029.241577
 40
      79.999985
 50
      90.000000
 51
     180.000000
  0
ARC
  8
0
  6
HILFSLINIE
 62
     8
 10
     748.152405
 20
    1029.241577
 40
      79.999969
 50
       0.000000
 51
      90.000000
  0
ARC
  8
0
  6
HILFSLINIE
 62
     8
 10
     748.152405
 20
     479.241882
 40
      79.999924
 50
     270.000000
 51
       0.000000
  0
ARC
  8
0
  6
HILFSLINIE
 62
     8
 10
     523.152283
 20
     804.241699
 40
     404.999786
 50
     180.000000
 51
     270.000031
  0
ARC
  8
0
  6
HILFSLINIE
 62
     8
 10
     523.152283
 20
     804.241699
 40
     490.999695
 50
     180.000000
 51
     270.000031
  0
ARC
  8
0
  6
HILFSLINIE
 62
     8
 10
     903.152283
 20
     324.241974
 40
      10.999993
 50
     270.000000
 51
       0.000000
  0
ARC
  8
0
  6
HILFSLINIE
 62
     8
 10
     903.152283
 20
    1184.241455
 40
      10.999993
 50
       0.000000
 51
      90.000000
  0
ARC
  8
0
  6
HILFSLINIE
 62
     8
 10
      43.152569
 20
    1184.241455
 40
      10.999993
 50
      90.000000
 51
     180.000000
  0
CIRCLE
  8
0
  6
HILFSLINIE
 62
     8
 10
     733.152405
 20
     494.241852
 40
      56.999966
  0
LINE
  8
0
  6
MITTELLINIE
 62
     8
 10
     733.152405
 20
     574.042664
 11
     733.152405
 21
     414.441132
  0
LINE
  8
0
  6
MITTELLINIE
 62
     8
 10
     653.352356
 20
     494.241852
 11
     812.952393
 21
     494.241852
  0
LINE
  8
0
  6
MITTELLINIE
 62
     8
 10
     473.152557
 20
     304.242004
 11
     473.152557
 21
    1204.241455
  0
LINE
  8
0
  6
MITTELLINIE
 62
     8
 10
     733.152161
 20
    1444.778442
 11
     733.152161
 21
    1381.321411
  0
LINE
  8
0
  6
MITTELLINIE
 62
     8
 10
     423.152100
 20
    1442.684692
 11
     423.152100
 21
    1396.397583
  0
LINE
  8
0
  6
MITTELLINIE
 62
     8
 10
     923.152283
 20
     754.241760
 11
      23.152584
 21
     754.241760
  0
LINE
  8
0
  6
MITTELLINIE
 62
     8
 10
    1833.151733
 20
    1444.778442
 11
    1833.151733
 21
    1381.321411
  0
LINE
  8
0
  6
MITTELLINIE
 62
     8
 10
    1523.151367
 20
    1442.684692
 11
    1523.151367
 21
    1396.397583
  0
LINE
  8
0
 10
     440.979736
 20
    1405.042114
 11
     666.346008
 21
    1399.309692
  0
LINE
  8
0
 10
     799.761963
 20
    1399.538208
 11
     845.560303
 21
    1401.868286
  0
LINE
  8
0
 10
     781.716064
 20
    1389.059692
 11
     684.533752
 21
    1389.059692
  0
LINE
  8
0
 10
      29.152336
 20
    1405.042114
 11
     918.152039
 21
    1405.042114
  0
LINE
  8
0
 10
      23.152340
 20
    1411.042114
 11
      23.152340
 21
    1428.042114
  0
LINE
  8
0
 10
     923.151794
 20
    1428.042114
 11
     923.152039
 21
    1410.042114
  0
LINE
  8
0
 10
      32.152332
 20
    1437.042114
 11
     914.151794
 21
    1437.042114
  0
LINE
  8
0
 10
     748.152405
 20
    1144.241577
 11
     198.152481
 21
    1144.241577
  0
LINE
  8
0
 10
     863.152039
 20
     479.241882
 11
     863.152283
 21
    1029.241577
  0
LINE
  8
0
 10
     748.152405
 20
     364.241943
 11
     523.152527
 21
     364.241943
  0
LINE
  8
0
 10
      83.152542
 20
     804.241699
 11
      83.152542
 21
    1029.241577
  0
LINE
  8
0
 10
     903.152283
 20
     304.242004
 11
     523.152527
 21
     304.242004
  0
LINE
  8
0
 10
     923.152283
 20
     324.241974
 11
     923.152283
 21
    1184.241455
  0
LINE
  8
0
 10
     903.152283
 20
    1204.241455
 11
      43.152569
 21
    1204.241455
  0
LINE
  8
0
 10
      23.152584
 20
     804.241699
 11
      23.152584
 21
    1184.241455
  0
LINE
  8
0
 10
    1540.979004
 20
    1405.042114
 11
    1766.345337
 21
    1399.309692
  0
LINE
  8
0
 10
    1899.761108
 20
    1399.538208
 11
    1945.559814
 21
    1401.868286
  0
LINE
  8
0
 10
    1881.715210
 20
    1389.059692
 11
    1784.533081
 21
    1389.059692
  0
LINE
  8
0
 10
    1129.151611
 20
    1405.042114
 11
    2018.151611
 21
    1405.042114
  0
LINE
  8
0
 10
    1123.151611
 20
    1411.042114
 11
    1123.151611
 21
    1428.042114
  0
LINE
  8
0
 10
    2023.151245
 20
    1428.042114
 11
    2023.151733
 21
    1410.042114
  0
LINE
  8
0
 10
    1132.151611
 20
    1437.042114
 11
    2014.151123
 21
    1437.042114
  0
ARC
  8
0
 10
     665.963196
 20
    1384.262817
 40
      15.051287
 50
      29.758713
 51
      88.759117
  0
ARC
  8
0
 10
     800.524414
 20
    1384.557739
 40
      14.999991
 50
      92.913628
 51
     148.480469
  0
ARC
  8
0
 10
     844.645752
 20
    1419.838989
 40
      17.993162
 50
     272.913330
 51
     304.678131
  0
ARC
  8
0
 10
     918.152039
 20
    1410.042114
 40
       4.999997
 50
     270.000000
 51
       0.000000
  0
ARC
  8
0
 10
     781.770264
 20
    1396.059692
 40
       6.999996
 50
     270.000000
 51
     328.475250
  0
ARC
  8
0
 10
     684.533752
 20
    1396.059692
 40
       6.999996
 50
     218.170471
 51
     270.000000
  0
ARC
  8
0
 10
      29.152336
 20
    1411.042114
 40
       5.999996
 50
     180.000000
 51
     270.000000
  0
ARC
  8
0
 10
     914.151794
 20
    1428.042114
 40
       8.999994
 50
       0.000000
 51
      90.000000
  0
ARC
  8
0
 10
      32.152332
 20
    1428.042114
 40
       8.999994
 50
      90.000000
 51
     180.000000
  0
ARC
  8
0
 10
     198.152481
 20
    1029.241577
 40
     114.999962
 50
      90.000000
 51
     180.000000
  0
ARC
  8
0
 10
     748.152405
 20
    1029.241577
 40
     114.999947
 50
       0.000000
 51
      90.000000
  0
ARC
  8
0
 10
     748.152405
 20
     479.241882
 40
     114.999901
 50
     270.000000
 51
       0.000000
  0
ARC
  8
0
 10
     523.152283
 20
     804.241699
 40
     439.999725
 50
     180.000000
 51
     270.000031
  0
ARC
  8
0
 10
     523.152283
 20
     804.241699
 40
     499.999695
 50
     180.000000
 51
     270.000031
  0
ARC
  8
0
 10
     903.152283
 20
     324.241974
 40
      19.999989
 50
     270.000000
 51
       0.000000
  0
ARC
  8
0
 10
     903.152283
 20
    1184.241455
 40
      19.999989
 50
       0.000000
 51
      90.000000
  0
ARC
  8
0
 10
      43.152569
 20
    1184.241455
 40
      19.999989
 50
      90.000000
 51
     180.000000
  0
ARC
  8
0
 10
    1765.962524
 20
    1384.262817
 40
      15.051287
 50
      29.758713
 51
      88.759117
  0
ARC
  8
0
 10
    1900.523804
 20
    1384.557739
 40
      14.999991
 50
      92.914558
 51
     148.480957
  0
ARC
  8
0
 10
    1944.644775
 20
    1419.838989
 40
      17.993162
 50
     272.914886
 51
     304.678925
  0
ARC
  8
0
 10
    2018.151611
 20
    1410.042114
 40
       4.999997
 50
     270.000000
 51
       0.000000
  0
ARC
  8
0
 10
    1881.769897
 20
    1396.059692
 40
       6.999996
 50
     270.000000
 51
     328.474182
  0
ARC
  8
0
 10
    1784.533081
 20
    1396.059692
 40
       6.999996
 50
     218.170471
 51
     270.000000
  0
ARC
  8
0
 10
    1129.151611
 20
    1411.042114
 40
       5.999996
 50
     180.000000
 51
     270.000000
  0
ARC
  8
0
 10
    2014.151123
 20
    1428.042114
 40
       8.999994
 50
       0.000000
 51
      90.000000
  0
ARC
  8
0
 10
    1132.151611
 20
    1428.042114
 40
       8.999994
 50
      90.000000
 51
     180.000000
  0
CIRCLE
  8
0
 10
     733.152405
 20
     494.241852
 40
      44.999973
  0
TEXT
  8
0
 10
    1312.748779
 20
    1043.669312
 40
      99.999947
 50
       0.000000
 51
       0.000000
 41
       0.746667
  1
ZIRKON
 72
     3
 11
    1606.081909
 21
    1043.669312
  0
TEXT
  8
0
 10
    2133.740479
 20
     668.392212
 40
      66.666634
 50
       0.000000
 51
       0.000000
 41
       0.910000
  1
35
 72
     3
 11
    2203.073730
 21
     668.392212
  0
TEXT
  8
0
 10
    1800.407104
 20
     668.392212
 40
      66.666634
 50
       0.000000
 51
       0.000000
 41
       0.910000
  1
900
 72
     3
 11
    1913.073730
 21
     668.392212
  0
TEXT
  8
0
 10
    1467.074341
 20
     668.394165
 40
      66.666634
 50
       0.000000
 51
       0.000000
 41
       0.910000
  1
900
 72
     3
 11
    1579.740967
 21
     668.394165
  0
TEXT
  8
0
 10
    1133.741455
 20
     668.394165
 40
      66.666634
 50
       0.000000
 51
       0.000000
 41
       0.910000
  1
604
 72
     3
 11
    1246.408081
 21
     668.394165
  0
TEXT
  8
0
 10
    2133.740479
 20
     868.392090
 40
      66.666634
 50
       0.000000
 51
       0.000000
 41
       0.910000
  1
Tiefe
 72
     3
 11
    2300.573730
 21
     868.392090
  0
TEXT
  8
0
 10
    1800.408081
 20
     868.392090
 40
      66.666634
 50
       0.000000
 51
       0.000000
 41
       0.910000
  1
Breite
 72
     3
 11
    1999.177979
 21
     868.392090
  0
TEXT
  8
0
 10
    1467.075317
 20
     868.394043
 40
      66.666634
 50
       0.000000
 51
       0.000000
 41
       0.910000
  1
Laenge
 72
     3
 11
    1709.741943
 21
     868.394043
  0
TEXT
  8
0
 10
    1133.742432
 20
     868.394043
 40
      66.666634
 50
       0.000000
 51
       0.000000
 41
       0.910000
  1
Modell
 72
     3
 11
    1341.742310
 21
     868.394043
  0
ENDSEC
  0
EOF
