  0
SECTION
  2
HEADER
  9
$ACADVER
  1
AC1009
  9
$ANGBASE
 50
       0.000000
  9
$ANGDIR
 70
     0
  9
$ATTDIA
 70
     0
  9
$ATTMODE
 70
     0
  9
$ATTREQ
 70
     0
  9
$AUNITS
 70
     0
  9
$AUPREC
 70
     1
  9
$BLIPMODE
 70
     1
  9
$CECOLOR
 62
   256
  9
$CELTYPE
  6
BYLAYER
  9
$CHAMFERA
 40
       0.000000
  9
$CHAMFERB
 40
       0.000000
  9
$CLAYER
  8
0
  9
$COORDS
 70
     1
  9
$DIMALT
 70
     0
  9
$DIMALTD
 70
     2
  9
$DIMALTF
 40
      25.400000
  9
$DIMAPOST
  1

  9
$DIMASO
 70
     0
  9
$DIMASZ
 40
       3.500000
  9
$DIMBLK
  1

  9
$DIMBLK1
  1

  9
$DIMBLK2
  1

  9
$DIMCEN
 40
       1.500000
  9
$DIMCLRD
 70
     0
  9
$DIMCLRE
 70
     0
  9
$DIMCLRT
 70
     0
  9
$DIMDLE
 40
       0.000000
  9
$DIMDLI
 40
       7.000000
  9
$DIMEXE
 40
       1.800000
  9
$DIMEXO
 40
       0.100000
  9
$DIMGAP
 40
       0.090000
  9
$DIMLFAC
 40
       1.000000
  9
$DIMLIM
 70
     0
  9
$DIMPOST
  1

  9
$DIMRND
 40
       0.000000
  9
$DIMSAH
 70
     0
  9
$DIMSCALE
 40
       1.000000
  9
$DIMSE1
 70
     0
  9
$DIMSE2
 70
     0
  9
$DIMSHO
 70
     1
  9
$DIMSOXD
 70
     0
  9
$DIMSTYLE
  2
*UNNAMED
  9
$DIMTAD
 70
     1
  9
$DIMTFAC
 40
       1.000000
  9
$DIMTIH
 70
     0
  9
$DIMTIX
 70
     0
  9
$DIMTM
 40
       0.000000
  9
$DIMTOFL
 70
     0
  9
$DIMTOH
 70
     0
  9
$DIMTOL
 70
     0
  9
$DIMTP
 40
       0.000000
  9
$DIMTSZ
 40
       0.000000
  9
$DIMTVP
 40
       0.000000
  9
$DIMTXT
 40
       3.500000
  9
$DIMZIN
 70
     0
  9
$DRAGMODE
 70
     2
  9
$DWGCODEPAGE
  3
dos850
  9
$ELEVATION
 40
       0.000000
  9
$EXTMAX
 10
    2167.593018
 20
    1605.363281
 30
       0.000000
  9
$EXTMIN
 10
       0.000000
 20
       0.000000
 30
       0.000000
  9
$FILLETRAD
 40
       0.000000
  9
$FILLMODE
 70
     1
  9
$HANDLING
 70
     0
  9
$HANDSEED
  5
0
  9
$INSBASE
 10
       0.000000
 20
       0.000000
 30
       0.000000
  9
$LIMCHECK
 70
     0
  9
$LIMMAX
 10
    2167.593018
 20
    1605.363281
  9
$LIMMIN
 10
       0.000000
 20
       0.000000
  9
$LTSCALE
 40
       1.000000
  9
$LUNITS
 70
     2
  9
$LUPREC
 70
     2
  9
$MAXACTVP
 70
    16
  9
$MENU
  1
ACAD
  9
$MIRRTEXT
 70
     0
  9
$ORTHOMODE
 70
     0
  9
$OSMODE
 70
     0
  9
$PDMODE
 70
     0
  9
$PDSIZE
 40
       0.000000
  9
$PELEVATION
 40
       0.000000
  9
$PEXTMAX
 10
    2167.593018
 20
    1605.363281
 30
       0.000000
  9
$PEXTMIN
 10
       0.000000
 20
       0.000000
 30
       0.000000
  9
$PINSBASE
 10
       0.000000
 20
       0.000000
 30
       0.000000
  9
$PLIMCHECK
 70
     0
  9
$PLIMMAX
 10
    2167.593018
 20
    1605.363281
  9
$PLIMMIN
 10
       0.000000
 20
       0.000000
  9
$PLINEGEN
 70
     0
  9
$PLINEWID
 40
       0.000000
  9
$PSLTSCALE
 70
     1
  9
$PUCSNAME
  2

  9
$PUCSORG
 10
       0.000000
 20
       0.000000
 30
       0.000000
  9
$PUCSXDIR
 10
       1.000000
 20
       0.000000
 30
       0.000000
  9
$PUCSYDIR
 10
       0.000000
 20
       1.000000
 30
       0.000000
  9
$QTEXTMODE
 70
     0
  9
$REGENMODE
 70
     1
  9
$SHADEDGE
 70
     3
  9
$SHADEDIF
 70
    70
  9
$SKETCHINC
 40
       1.000000
  9
$SKPOLY
 70
     0
  9
$SPLFRAME
 70
     0
  9
$SPLINESEGS
 70
     8
  9
$SPLINETYPE
 70
     6
  9
$SURFTAB1
 70
     6
  9
$SURFTAB2
 70
     6
  9
$SURFTYPE
 70
     6
  9
$SURFU
 70
     6
  9
$SURFV
 70
     6
  9
$TDCREATE
 40
2453461.5645833332
  9
$TDINDWG
 40
       0.000000
  9
$TDUPDATE
 40
2453461.5645833332
  9
$TDUSRTIMER
 40
       0.000000
  9
$TEXTSIZE
 40
       3.500000
  9
$TEXTSTYLE
  7
STANDARD
  9
$THICKNESS
 40
       0.000000
  9
$TILEMODE
 70
     1
  9
$TRACEWID
 40
       1.000000
  9
$TREEDEPTH
 70
 -3020
  9
$UCSNAME
  2

  9
$UCSORG
 10
       0.000000
 20
       0.000000
 30
       0.000000
  9
$UCSXDIR
 10
       1.000000
 20
       0.000000
 30
       0.000000
  9
$UCSYDIR
 10
       0.000000
 20
       1.000000
 30
       0.000000
  9
$UNITMODE
 70
     0
  9
$USERI1
 70
     0
  9
$USERI2
 70
     0
  9
$USERI3
 70
     0
  9
$USERI4
 70
     0
  9
$USERI5
 70
     0
  9
$USERR1
 40
       0.000000
  9
$USERR2
 40
       0.000000
  9
$USERR3
 40
       0.000000
  9
$USERR4
 40
       0.000000
  9
$USERR5
 40
       0.000000
  9
$USRTIMER
 70
     0
  9
$VISRETAIN
 70
     0
  9
$WORLDVIEW
 70
     1
  0
ENDSEC
  0
SECTION
  2
TABLES
  0
TABLE
  2
LTYPE
 70
    16
  0
LTYPE
  2
AUSGEZOGEN
 70
     0
  3
________________
 72
    65
 73
     0
 40
       0.000000
  0
LTYPE
  2
VERDECKTE_KANTE
 70
     0
  3
____________
 72
    65
 73
     2
 40
5.
 49
4.
 49
-1.
  0
LTYPE
  2
HILFSLINIE
 70
     0
  3
________________
 72
    65
 73
     0
 40
       0.000000
  0
LTYPE
  2
BRUCHLINIE
 70
     0
  3
________________
 72
    65
 73
     0
 40
       0.000000
  0
LTYPE
  2
MITTELLINIE
 70
     0
  3
__________ _
 72
    65
 73
     4
 40
13.
 49
10.
 49
-1.
 49
1.
 49
-1.
  0
LTYPE
  2
SCHNITTLINIE
 70
     0
  3
__________ _
 72
    65
 73
     4
 40
13.
 49
10.
 49
-1.
 49
1.
 49
-1.
  0
LTYPE
  2
SCHWERLINIE
 70
     0
  3
__________ _ _
 72
    65
 73
     6
 40
15.
 49
10.
 49
-1.
 49
1.
 49
-1.
 49
1.
 49
-1.
  0
LTYPE
  2
ENTWURFSLINIE
 70
     0
  3
_   _   _   _
 72
    65
 73
     8
 40
16.
 49
1.
 49
-3.
 49
1.
 49
-3.
 49
1.
 49
-3.
 49
1.
 49
-3.
  0
LTYPE
  2
SONDERLINIE1
 70
     0
  3
________________
 72
    65
 73
     0
 40
       0.000000
  0
LTYPE
  2
SONDERLINIE2
 70
     0
  3
__________ _ _
 72
    65
 73
     6
 40
15.
 49
10.
 49
-1.
 49
1.
 49
-1.
 49
1.
 49
-1.
  0
LTYPE
  2
SONDERLINIE3
 70
     0
  3
_________ _ _ _
 72
    65
 73
     8
 40
16.
 49
9.
 49
-1.
 49
1.
 49
-1.
 49
1.
 49
-1.
 49
1.
 49
-1.
  0
LTYPE
  2
SONDERLINIE4
 70
     0
  3
_________ _ _ _
 72
    65
 73
     8
 40
16.
 49
9.
 49
-1.
 49
1.
 49
-1.
 49
1.
 49
-1.
 49
1.
 49
-1.
  0
LTYPE
  2
SONDERLINIE5
 70
     0
  3
_______ _ _ _ _
 72
    65
 73
    10
 40
16.
 49
7.
 49
-1.
 49
1.
 49
-1.
 49
1.
 49
-1.
 49
1.
 49
-1.
 49
1.
 49
-1.
  0
LTYPE
  2
SONDERLINIE6
 70
     0
  3
_______ _ _ _ _
 72
    65
 73
    10
 40
16.
 49
7.
 49
-1.
 49
1.
 49
-1.
 49
1.
 49
-1.
 49
1.
 49
-1.
 49
1.
 49
-1.
  0
LTYPE
  2
SONDERLINIE7
 70
     0
  3
_____ _ _ _ _ _
 72
    65
 73
    12
 40
16.
 49
5.
 49
-1.
 49
1.
 49
-1.
 49
1.
 49
-1.
 49
1.
 49
-1.
 49
1.
 49
-1.
 49
1.
 49
-1.
  0
LTYPE
  2
SONDERLINIE8
 70
     0
  3
_____ _ _ _ _ _
 72
    65
 73
    12
 40
16.
 49
5.
 49
-1.
 49
1.
 49
-1.
 49
1.
 49
-1.
 49
1.
 49
-1.
 49
1.
 49
-1.
 49
1.
 49
-1.
  0
ENDTAB
  0
TABLE
  2
LAYER
 70
     1
  0
LAYER
  2
0
 62
     7
  6
AUSGEZOGEN
 70
    64
  0
ENDTAB
  0
TABLE
  2
STYLE
 70
     0
  0
STYLE
  2
STANDARD
 70
     0
 40
     0
 41
       1.000000
 50
       0.000000
 71
     0
 42
       3.500000
  3
isocp
  4

  0
ENDTAB
  0
TABLE
  2
VIEW
 70
     0
  0
ENDTAB
  0
TABLE
  2
VPORT
 70
     2
  0
VPORT
  2
*ACTIVE
 70
     0
 10
       0.000000
 20
       0.000000
 11
       1.000000
 21
       1.000000
 12
    1083.796509
 22
     802.681641
 13
       0.000000
 23
       0.000000
 14
       1.000000
 24
       1.000000
 15
       0.000000
 25
       0.000000
 16
       0.000000
 26
       0.000000
 36
       1.000000
 17
       0.000000
 27
       0.000000
 37
       0.000000
 40
    1605.363281
 41
       1.350220
 42
      50.000000
 43
       0.000000
 44
       0.000000
 50
       0.000000
 51
       0.000000
 71
     0
 72
   100
 73
     1
 74
     1
 75
     0
 76
     0
 77
     0
 78
     0
  0
ENDTAB
  0
TABLE
  2
DIMSTYLE
 70
     1
  0
DIMSTYLE
  2
STDBEM
 70
     0
  3

  4

  5

  6

  7

 40
       1.000000
 41
       3.500000
 42
       0.100000
 43
       7.000000
 44
       1.800000
 45
       0.000000
 46
       0.000000
 47
       0.000000
 48
       0.000000
140
       3.500000
141
       1.500000
142
       0.000000
143
      25.400000
144
       1.000000
145
       0.000000
146
       1.000000
147
       0.090000
 71
     0
 72
     0
 73
     0
 74
     0
 75
     0
 76
     0
 77
     1
 78
     0
170
     0
171
     2
172
     0
173
     0
174
     0
175
     0
176
     0
177
     0
178
     0
  0
ENDTAB
  0
ENDSEC
  0
SECTION
  2
BLOCKS
  0
ENDSEC
  0
SECTION
  2
ENTITIES
  0
LINE
  8
0
  6
HILFSLINIE
 62
     8
 10
     959.341309
 20
     780.578247
 11
    2146.341797
 21
     780.578247
  0
LINE
  8
0
  6
HILFSLINIE
 62
     8
 10
     646.250732
 20
    1082.582153
 11
     196.250732
 21
    1082.582153
  0
LINE
  8
0
  6
HILFSLINIE
 62
     8
 10
     714.250732
 20
     689.582153
 11
     714.250732
 21
    1014.582153
  0
LINE
  8
0
  6
HILFSLINIE
 62
     8
 10
     196.250732
 20
     296.582153
 11
     321.250732
 21
     296.582153
  0
LINE
  8
0
  6
HILFSLINIE
 62
     8
 10
     128.250732
 20
    1014.582153
 11
     128.250732
 21
     364.582153
  0
LINE
  8
0
  6
HILFSLINIE
 62
     8
 10
      62.250732
 20
    1014.582153
 11
      62.250732
 21
     364.582153
  0
LINE
  8
0
  6
HILFSLINIE
 62
     8
 10
     196.250732
 20
     230.582153
 11
     321.250732
 21
     230.582153
  0
LINE
  8
0
  6
HILFSLINIE
 62
     8
 10
     780.250732
 20
     689.582153
 11
     780.250732
 21
    1014.582153
  0
LINE
  8
0
  6
HILFSLINIE
 62
     8
 10
     646.250732
 20
    1148.582153
 11
     196.250732
 21
    1148.582153
  0
LINE
  8
0
  6
HILFSLINIE
 62
     8
 10
     798.250732
 20
    1183.582153
 11
      44.250732
 21
    1183.582153
  0
LINE
  8
0
  6
HILFSLINIE
 62
     8
 10
     815.250732
 20
     689.582153
 11
     815.250732
 21
    1166.582153
  0
LINE
  8
0
  6
HILFSLINIE
 62
     8
 10
      44.250732
 20
     195.582153
 11
     321.250732
 21
     195.582153
  0
LINE
  8
0
  6
HILFSLINIE
 62
     8
 10
      27.250732
 20
    1166.582153
 11
      27.250732
 21
     212.582153
  0
ARC
  8
0
  6
HILFSLINIE
 62
     8
 10
     196.250732
 20
    1014.582153
 40
      68.000000
 50
      90.000000
 51
     180.000000
  0
ARC
  8
0
  6
HILFSLINIE
 62
     8
 10
     646.250732
 20
    1014.582153
 40
      68.000000
 50
       0.000000
 51
      90.000000
  0
ARC
  8
0
  6
HILFSLINIE
 62
     8
 10
     321.250732
 20
     689.582153
 40
     393.000000
 50
     270.000000
 51
       0.000000
  0
ARC
  8
0
  6
HILFSLINIE
 62
     8
 10
     196.250732
 20
     364.582153
 40
      68.000000
 50
     180.000000
 51
     270.000000
  0
ARC
  8
0
  6
HILFSLINIE
 62
     8
 10
     196.250732
 20
    1014.582153
 40
     134.000000
 50
      90.000000
 51
     180.000000
  0
ARC
  8
0
  6
HILFSLINIE
 62
     8
 10
     196.250732
 20
     364.582153
 40
     134.000000
 50
     180.000000
 51
     270.000000
  0
ARC
  8
0
  6
HILFSLINIE
 62
     8
 10
     321.250732
 20
     689.582153
 40
     459.000000
 50
     270.000000
 51
       0.000000
  0
ARC
  8
0
  6
HILFSLINIE
 62
     8
 10
     646.250732
 20
    1014.582153
 40
     134.000000
 50
       0.000000
 51
      90.000000
  0
ARC
  8
0
  6
HILFSLINIE
 62
     8
 10
     798.250732
 20
    1166.582153
 40
      17.000000
 50
       0.000000
 51
      90.000000
  0
ARC
  8
0
  6
HILFSLINIE
 62
     8
 10
     321.250732
 20
     689.582153
 40
     494.000000
 50
     270.000000
 51
       0.000000
  0
ARC
  8
0
  6
HILFSLINIE
 62
     8
 10
      44.250732
 20
     212.582153
 40
      17.000000
 50
     180.000000
 51
     270.000000
  0
ARC
  8
0
  6
HILFSLINIE
 62
     8
 10
      44.250732
 20
    1166.582153
 40
      17.000000
 50
      90.000000
 51
     180.000000
  0
CIRCLE
  8
0
  6
HILFSLINIE
 62
     8
 10
     211.250732
 20
     379.582153
 40
      57.000000
  0
LINE
  8
0
  6
MITTELLINIE
 62
     8
 10
     421.250732
 20
    1166.582153
 11
     421.250732
 21
     212.582153
  0
LINE
  8
0
  6
MITTELLINIE
 62
     8
 10
    1789.134766
 20
    1415.781372
 11
    1789.134766
 21
    1306.582153
  0
LINE
  8
0
  6
MITTELLINIE
 62
     8
 10
     421.250732
 20
    1314.580200
 11
     421.250732
 21
    1397.201294
  0
LINE
  8
0
  6
MITTELLINIE
 62
     8
 10
     821.250732
 20
     689.582153
 11
      21.250732
 21
     689.582153
  0
LINE
  8
0
  6
MITTELLINIE
 62
     8
 10
     277.250732
 20
     379.582153
 11
     145.250732
 21
     379.582153
  0
LINE
  8
0
  6
MITTELLINIE
 62
     8
 10
     211.250732
 20
     445.582153
 11
     211.250732
 21
     313.582153
  0
LINE
  8
0
  6
MITTELLINIE
 62
     8
 10
     211.250732
 20
    1415.781372
 11
     211.250732
 21
    1306.582153
  0
LINE
  8
0
  6
MITTELLINIE
 62
     8
 10
    1479.134766
 20
    1303.980591
 11
    1479.134766
 21
    1409.730591
  0
LINE
  8
0
 10
    1721.347656
 20
    1337.855591
 11
    1559.957764
 21
    1342.082153
  0
LINE
  8
0
 10
    1856.922852
 20
    1337.855591
 11
    1872.417969
 21
    1338.261841
  0
LINE
  8
0
 10
    1740.571289
 20
    1325.744263
 11
    1837.753906
 21
    1325.744263
  0
LINE
  8
0
 10
    1979.134766
 20
    1348.082153
 11
    1979.134766
 21
    1368.082153
  0
LINE
  8
0
 10
     985.135010
 20
    1342.082153
 11
    1973.134766
 21
    1342.082153
  0
LINE
  8
0
 10
     979.135010
 20
    1348.082153
 11
     979.135010
 21
    1368.082153
  0
LINE
  8
0
 10
     985.135010
 20
    1374.082153
 11
    1973.134766
 21
    1374.082153
  0
LINE
  8
0
 10
     279.038330
 20
    1337.855591
 11
     440.427734
 21
    1342.082153
  0
LINE
  8
0
 10
     143.463135
 20
    1337.855591
 11
     127.967773
 21
    1338.261841
  0
LINE
  8
0
 10
     259.814941
 20
    1325.744263
 11
     162.632568
 21
    1325.744263
  0
LINE
  8
0
 10
      27.250732
 20
    1342.082153
 11
     815.250732
 21
    1342.082153
  0
LINE
  8
0
 10
      21.250732
 20
    1348.082153
 11
      21.250732
 21
    1368.082153
  0
LINE
  8
0
 10
     821.250732
 20
    1348.082153
 11
     821.250732
 21
    1368.082153
  0
LINE
  8
0
 10
     815.250732
 20
    1374.082153
 11
      27.250732
 21
    1374.082153
  0
LINE
  8
0
 10
      81.250732
 20
    1014.582153
 11
      81.250732
 21
     364.582153
  0
LINE
  8
0
 10
     196.250732
 20
     249.582153
 11
     321.250732
 21
     249.582153
  0
LINE
  8
0
 10
     761.250732
 20
     689.582153
 11
     761.250732
 21
    1014.582153
  0
LINE
  8
0
 10
     646.250732
 20
    1129.582153
 11
     196.250732
 21
    1129.582153
  0
LINE
  8
0
 10
     821.250732
 20
     689.582153
 11
     821.250732
 21
    1166.582153
  0
LINE
  8
0
 10
      44.250732
 20
     189.582153
 11
     321.250732
 21
     189.582153
  0
LINE
  8
0
 10
      21.250732
 20
    1166.582153
 11
      21.250732
 21
     212.582153
  0
LINE
  8
0
 10
     798.250732
 20
    1189.582153
 11
      44.250732
 21
    1189.582153
  0
ARC
  8
0
 10
    1871.291992
 20
    1381.246216
 40
      42.999729
 50
     271.500519
 51
     294.382843
  0
ARC
  8
0
 10
     985.135010
 20
    1368.082153
 40
       6.000000
 50
      90.000000
 51
     180.000000
  0
ARC
  8
0
 10
    1973.134766
 20
    1348.082153
 40
       6.000000
 50
     270.000000
 51
       0.000000
  0
ARC
  8
0
 10
    1973.134766
 20
    1368.082153
 40
       6.000000
 50
       0.000000
 51
      90.000000
  0
ARC
  8
0
 10
    1837.753906
 20
    1332.744263
 40
       7.000000
 50
     270.000000
 51
     333.306244
  0
ARC
  8
0
 10
    1720.860352
 20
    1322.863403
 40
      15.000000
 50
      26.685162
 51
      88.197968
  0
ARC
  8
0
 10
    1740.516602
 20
    1332.744263
 40
       7.000000
 50
     206.693726
 51
     270.000000
  0
ARC
  8
0
 10
    1857.410156
 20
    1322.863403
 40
      15.000000
 50
      91.802025
 51
     153.314835
  0
ARC
  8
0
 10
     985.135010
 20
    1348.082153
 40
       6.000000
 50
     180.000000
 51
     270.000000
  0
ARC
  8
0
 10
     129.093994
 20
    1381.246216
 40
      42.999729
 50
     245.617752
 51
     268.499146
  0
ARC
  8
0
 10
     815.250732
 20
    1368.082153
 40
       6.000000
 50
       0.000000
 51
      90.000000
  0
ARC
  8
0
 10
      27.250732
 20
    1348.082153
 40
       6.000000
 50
     180.000000
 51
     270.000000
  0
ARC
  8
0
 10
      27.250732
 20
    1368.082153
 40
       6.000000
 50
      90.000000
 51
     180.000000
  0
ARC
  8
0
 10
     162.632568
 20
    1332.744263
 40
       7.000000
 50
     206.692841
 51
     270.000000
  0
ARC
  8
0
 10
     279.525391
 20
    1322.863403
 40
      15.000000
 50
      91.800163
 51
     153.314835
  0
ARC
  8
0
 10
     259.869141
 20
    1332.744263
 40
       7.000000
 50
     270.000000
 51
     333.306244
  0
ARC
  8
0
 10
     142.976318
 20
    1322.863403
 40
      15.000000
 50
      26.685579
 51
      88.199837
  0
ARC
  8
0
 10
     815.250732
 20
    1348.082153
 40
       6.000000
 50
     270.000000
 51
       0.000000
  0
ARC
  8
0
 10
      44.250732
 20
     212.582153
 40
      23.000000
 50
     180.000000
 51
     270.000000
  0
ARC
  8
0
 10
      44.250732
 20
    1166.582153
 40
      23.000000
 50
      90.000000
 51
     180.000000
  0
ARC
  8
0
 10
     798.250732
 20
    1166.582153
 40
      23.000000
 50
       0.000000
 51
      90.000000
  0
ARC
  8
0
 10
     196.250732
 20
    1014.582153
 40
     115.000000
 50
      90.000000
 51
     180.000000
  0
ARC
  8
0
 10
     196.250732
 20
     364.582153
 40
     115.000000
 50
     180.000000
 51
     270.000000
  0
ARC
  8
0
 10
     321.250732
 20
     689.582153
 40
     440.000000
 50
     270.000000
 51
       0.000000
  0
ARC
  8
0
 10
     646.250732
 20
    1014.582153
 40
     115.000000
 50
       0.000000
 51
      90.000000
  0
ARC
  8
0
 10
     321.250732
 20
     689.582153
 40
     500.000000
 50
     270.000000
 51
       0.000000
  0
CIRCLE
  8
0
 10
     211.250732
 20
     379.582153
 40
      45.000000
  0
TEXT
  8
0
 10
    1120.687500
 20
    1020.519653
 40
     100.000008
 50
       0.000000
 51
       0.000000
 41
       0.746667
  1
ZIRKON
 72
     3
 11
    1414.020752
 21
    1020.519653
  0
TEXT
  8
0
 10
    1941.679688
 20
     645.242310
 40
      66.666672
 50
       0.000000
 51
       0.000000
 41
       0.910000
  1
35
 72
     3
 11
    2011.013062
 21
     645.242310
  0
TEXT
  8
0
 10
    1608.346191
 20
     645.242310
 40
      66.666672
 50
       0.000000
 51
       0.000000
 41
       0.910000
  1
800
 72
     3
 11
    1721.012817
 21
     645.242310
  0
TEXT
  8
0
 10
    1275.013184
 20
     645.244263
 40
      66.666672
 50
       0.000000
 51
       0.000000
 41
       0.910000
  1
1000
 72
     3
 11
    1420.179932
 21
     645.244263
  0
TEXT
  8
0
 10
     941.680176
 20
     645.244263
 40
      66.666672
 50
       0.000000
 51
       0.000000
 41
       0.910000
  1
605
 72
     3
 11
    1054.346802
 21
     645.244263
  0
TEXT
  8
0
 10
    1941.679688
 20
     845.242310
 40
      66.666672
 50
       0.000000
 51
       0.000000
 41
       0.910000
  1
Tiefe
 72
     3
 11
    2108.512939
 21
     845.242310
  0
TEXT
  8
0
 10
    1608.347168
 20
     845.242310
 40
      66.666672
 50
       0.000000
 51
       0.000000
 41
       0.910000
  1
Breite
 72
     3
 11
    1807.117188
 21
     845.242310
  0
TEXT
  8
0
 10
    1275.014160
 20
     845.244263
 40
      66.666672
 50
       0.000000
 51
       0.000000
 41
       0.910000
  1
Laenge
 72
     3
 11
    1517.680908
 21
     845.244263
  0
TEXT
  8
0
 10
     941.681152
 20
     845.244263
 40
      66.666672
 50
       0.000000
 51
       0.000000
 41
       0.910000
  1
Modell
 72
     3
 11
    1149.681152
 21
     845.244263
  0
ENDSEC
  0
EOF
