  0
SECTION
  2
HEADER
  9
$ACADVER
  1
AC1009
  9
$ANGBASE
 50
       0.000000
  9
$ANGDIR
 70
     0
  9
$ATTDIA
 70
     0
  9
$ATTMODE
 70
     0
  9
$ATTREQ
 70
     0
  9
$AUNITS
 70
     0
  9
$AUPREC
 70
     1
  9
$BLIPMODE
 70
     1
  9
$CECOLOR
 62
   256
  9
$CELTYPE
  6
BYLAYER
  9
$CHAMFERA
 40
       0.000000
  9
$CHAMFERB
 40
       0.000000
  9
$CLAYER
  8
0
  9
$COORDS
 70
     1
  9
$DIMALT
 70
     0
  9
$DIMALTD
 70
     2
  9
$DIMALTF
 40
      25.400000
  9
$DIMAPOST
  1

  9
$DIMASO
 70
     0
  9
$DIMASZ
 40
       3.500000
  9
$DIMBLK
  1

  9
$DIMBLK1
  1

  9
$DIMBLK2
  1

  9
$DIMCEN
 40
       1.500000
  9
$DIMCLRD
 70
     0
  9
$DIMCLRE
 70
     0
  9
$DIMCLRT
 70
     0
  9
$DIMDLE
 40
       0.000000
  9
$DIMDLI
 40
       7.000000
  9
$DIMEXE
 40
       1.800000
  9
$DIMEXO
 40
       0.100000
  9
$DIMGAP
 40
       0.090000
  9
$DIMLFAC
 40
       1.000000
  9
$DIMLIM
 70
     0
  9
$DIMPOST
  1

  9
$DIMRND
 40
       0.000000
  9
$DIMSAH
 70
     0
  9
$DIMSCALE
 40
       1.000000
  9
$DIMSE1
 70
     0
  9
$DIMSE2
 70
     0
  9
$DIMSHO
 70
     1
  9
$DIMSOXD
 70
     0
  9
$DIMSTYLE
  2
*UNNAMED
  9
$DIMTAD
 70
     1
  9
$DIMTFAC
 40
       1.000000
  9
$DIMTIH
 70
     0
  9
$DIMTIX
 70
     0
  9
$DIMTM
 40
       0.000000
  9
$DIMTOFL
 70
     0
  9
$DIMTOH
 70
     0
  9
$DIMTOL
 70
     0
  9
$DIMTP
 40
       0.000000
  9
$DIMTSZ
 40
       0.000000
  9
$DIMTVP
 40
       0.000000
  9
$DIMTXT
 40
       3.500000
  9
$DIMZIN
 70
     0
  9
$DRAGMODE
 70
     2
  9
$DWGCODEPAGE
  3
dos850
  9
$ELEVATION
 40
       0.000000
  9
$EXTMAX
 10
    2159.402832
 20
    1599.297607
 30
       0.000000
  9
$EXTMIN
 10
       0.000000
 20
       0.000000
 30
       0.000000
  9
$FILLETRAD
 40
       0.000000
  9
$FILLMODE
 70
     1
  9
$HANDLING
 70
     0
  9
$HANDSEED
  5
0
  9
$INSBASE
 10
       0.000000
 20
       0.000000
 30
       0.000000
  9
$LIMCHECK
 70
     0
  9
$LIMMAX
 10
    2159.402832
 20
    1599.297607
  9
$LIMMIN
 10
       0.000000
 20
       0.000000
  9
$LTSCALE
 40
       1.000000
  9
$LUNITS
 70
     2
  9
$LUPREC
 70
     2
  9
$MAXACTVP
 70
    16
  9
$MENU
  1
ACAD
  9
$MIRRTEXT
 70
     0
  9
$ORTHOMODE
 70
     0
  9
$OSMODE
 70
     0
  9
$PDMODE
 70
     0
  9
$PDSIZE
 40
       0.000000
  9
$PELEVATION
 40
       0.000000
  9
$PEXTMAX
 10
    2159.402832
 20
    1599.297607
 30
       0.000000
  9
$PEXTMIN
 10
       0.000000
 20
       0.000000
 30
       0.000000
  9
$PINSBASE
 10
       0.000000
 20
       0.000000
 30
       0.000000
  9
$PLIMCHECK
 70
     0
  9
$PLIMMAX
 10
    2159.402832
 20
    1599.297607
  9
$PLIMMIN
 10
       0.000000
 20
       0.000000
  9
$PLINEGEN
 70
     0
  9
$PLINEWID
 40
       0.000000
  9
$PSLTSCALE
 70
     1
  9
$PUCSNAME
  2

  9
$PUCSORG
 10
       0.000000
 20
       0.000000
 30
       0.000000
  9
$PUCSXDIR
 10
       1.000000
 20
       0.000000
 30
       0.000000
  9
$PUCSYDIR
 10
       0.000000
 20
       1.000000
 30
       0.000000
  9
$QTEXTMODE
 70
     0
  9
$REGENMODE
 70
     1
  9
$SHADEDGE
 70
     3
  9
$SHADEDIF
 70
    70
  9
$SKETCHINC
 40
       1.000000
  9
$SKPOLY
 70
     0
  9
$SPLFRAME
 70
     0
  9
$SPLINESEGS
 70
     8
  9
$SPLINETYPE
 70
     6
  9
$SURFTAB1
 70
     6
  9
$SURFTAB2
 70
     6
  9
$SURFTYPE
 70
     6
  9
$SURFU
 70
     6
  9
$SURFV
 70
     6
  9
$TDCREATE
 40
2453461.5673611113
  9
$TDINDWG
 40
       0.000000
  9
$TDUPDATE
 40
2453461.5673611113
  9
$TDUSRTIMER
 40
       0.000000
  9
$TEXTSIZE
 40
       3.500000
  9
$TEXTSTYLE
  7
STANDARD
  9
$THICKNESS
 40
       0.000000
  9
$TILEMODE
 70
     1
  9
$TRACEWID
 40
       1.000000
  9
$TREEDEPTH
 70
 -3020
  9
$UCSNAME
  2

  9
$UCSORG
 10
       0.000000
 20
       0.000000
 30
       0.000000
  9
$UCSXDIR
 10
       1.000000
 20
       0.000000
 30
       0.000000
  9
$UCSYDIR
 10
       0.000000
 20
       1.000000
 30
       0.000000
  9
$UNITMODE
 70
     0
  9
$USERI1
 70
     0
  9
$USERI2
 70
     0
  9
$USERI3
 70
     0
  9
$USERI4
 70
     0
  9
$USERI5
 70
     0
  9
$USERR1
 40
       0.000000
  9
$USERR2
 40
       0.000000
  9
$USERR3
 40
       0.000000
  9
$USERR4
 40
       0.000000
  9
$USERR5
 40
       0.000000
  9
$USRTIMER
 70
     0
  9
$VISRETAIN
 70
     0
  9
$WORLDVIEW
 70
     1
  0
ENDSEC
  0
SECTION
  2
TABLES
  0
TABLE
  2
LTYPE
 70
    16
  0
LTYPE
  2
AUSGEZOGEN
 70
     0
  3
________________
 72
    65
 73
     0
 40
       0.000000
  0
LTYPE
  2
VERDECKTE_KANTE
 70
     0
  3
____________
 72
    65
 73
     2
 40
5.
 49
4.
 49
-1.
  0
LTYPE
  2
HILFSLINIE
 70
     0
  3
________________
 72
    65
 73
     0
 40
       0.000000
  0
LTYPE
  2
BRUCHLINIE
 70
     0
  3
________________
 72
    65
 73
     0
 40
       0.000000
  0
LTYPE
  2
MITTELLINIE
 70
     0
  3
__________ _
 72
    65
 73
     4
 40
13.
 49
10.
 49
-1.
 49
1.
 49
-1.
  0
LTYPE
  2
SCHNITTLINIE
 70
     0
  3
__________ _
 72
    65
 73
     4
 40
13.
 49
10.
 49
-1.
 49
1.
 49
-1.
  0
LTYPE
  2
SCHWERLINIE
 70
     0
  3
__________ _ _
 72
    65
 73
     6
 40
15.
 49
10.
 49
-1.
 49
1.
 49
-1.
 49
1.
 49
-1.
  0
LTYPE
  2
ENTWURFSLINIE
 70
     0
  3
_   _   _   _
 72
    65
 73
     8
 40
16.
 49
1.
 49
-3.
 49
1.
 49
-3.
 49
1.
 49
-3.
 49
1.
 49
-3.
  0
LTYPE
  2
SONDERLINIE1
 70
     0
  3
________________
 72
    65
 73
     0
 40
       0.000000
  0
LTYPE
  2
SONDERLINIE2
 70
     0
  3
__________ _ _
 72
    65
 73
     6
 40
15.
 49
10.
 49
-1.
 49
1.
 49
-1.
 49
1.
 49
-1.
  0
LTYPE
  2
SONDERLINIE3
 70
     0
  3
_________ _ _ _
 72
    65
 73
     8
 40
16.
 49
9.
 49
-1.
 49
1.
 49
-1.
 49
1.
 49
-1.
 49
1.
 49
-1.
  0
LTYPE
  2
SONDERLINIE4
 70
     0
  3
_________ _ _ _
 72
    65
 73
     8
 40
16.
 49
9.
 49
-1.
 49
1.
 49
-1.
 49
1.
 49
-1.
 49
1.
 49
-1.
  0
LTYPE
  2
SONDERLINIE5
 70
     0
  3
_______ _ _ _ _
 72
    65
 73
    10
 40
16.
 49
7.
 49
-1.
 49
1.
 49
-1.
 49
1.
 49
-1.
 49
1.
 49
-1.
 49
1.
 49
-1.
  0
LTYPE
  2
SONDERLINIE6
 70
     0
  3
_______ _ _ _ _
 72
    65
 73
    10
 40
16.
 49
7.
 49
-1.
 49
1.
 49
-1.
 49
1.
 49
-1.
 49
1.
 49
-1.
 49
1.
 49
-1.
  0
LTYPE
  2
SONDERLINIE7
 70
     0
  3
_____ _ _ _ _ _
 72
    65
 73
    12
 40
16.
 49
5.
 49
-1.
 49
1.
 49
-1.
 49
1.
 49
-1.
 49
1.
 49
-1.
 49
1.
 49
-1.
 49
1.
 49
-1.
  0
LTYPE
  2
SONDERLINIE8
 70
     0
  3
_____ _ _ _ _ _
 72
    65
 73
    12
 40
16.
 49
5.
 49
-1.
 49
1.
 49
-1.
 49
1.
 49
-1.
 49
1.
 49
-1.
 49
1.
 49
-1.
 49
1.
 49
-1.
  0
ENDTAB
  0
TABLE
  2
LAYER
 70
     1
  0
LAYER
  2
0
 62
     7
  6
AUSGEZOGEN
 70
    64
  0
ENDTAB
  0
TABLE
  2
STYLE
 70
     0
  0
STYLE
  2
STANDARD
 70
     0
 40
     0
 41
       1.000000
 50
       0.000000
 71
     0
 42
       3.500000
  3
isocp
  4

  0
ENDTAB
  0
TABLE
  2
VIEW
 70
     0
  0
ENDTAB
  0
TABLE
  2
VPORT
 70
     2
  0
VPORT
  2
*ACTIVE
 70
     0
 10
       0.000000
 20
       0.000000
 11
       1.000000
 21
       1.000000
 12
    1079.701416
 22
     799.648804
 13
       0.000000
 23
       0.000000
 14
       1.000000
 24
       1.000000
 15
       0.000000
 25
       0.000000
 16
       0.000000
 26
       0.000000
 36
       1.000000
 17
       0.000000
 27
       0.000000
 37
       0.000000
 40
    1599.297607
 41
       1.350219
 42
      50.000000
 43
       0.000000
 44
       0.000000
 50
       0.000000
 51
       0.000000
 71
     0
 72
   100
 73
     1
 74
     1
 75
     0
 76
     0
 77
     0
 78
     0
  0
ENDTAB
  0
TABLE
  2
DIMSTYLE
 70
     1
  0
DIMSTYLE
  2
STDBEM
 70
     0
  3

  4

  5

  6

  7

 40
       1.000000
 41
       3.500000
 42
       0.100000
 43
       7.000000
 44
       1.800000
 45
       0.000000
 46
       0.000000
 47
       0.000000
 48
       0.000000
140
       3.500000
141
       1.500000
142
       0.000000
143
      25.400000
144
       1.000000
145
       0.000000
146
       1.000000
147
       0.090000
 71
     0
 72
     0
 73
     0
 74
     0
 75
     0
 76
     0
 77
     1
 78
     0
170
     0
171
     2
172
     0
173
     0
174
     0
175
     0
176
     0
177
     0
178
     0
  0
ENDTAB
  0
ENDSEC
  0
SECTION
  2
BLOCKS
  0
ENDSEC
  0
SECTION
  2
ENTITIES
  0
LINE
  8
0
  6
VERDECKTE_KANTE
 62
     8
 10
     761.170532
 20
    1368.848877
 11
     761.170532
 21
    1369.348877
  0
LINE
  8
0
  6
HILFSLINIE
 62
     8
 10
     951.231506
 20
     730.057922
 11
    2138.231934
 21
     730.057922
  0
LINE
  8
0
  6
HILFSLINIE
 62
     8
 10
     196.170578
 20
     999.649719
 11
     646.170532
 21
     999.649719
  0
LINE
  8
0
  6
HILFSLINIE
 62
     8
 10
     128.170593
 20
     706.649719
 11
     128.170593
 21
     931.649719
  0
LINE
  8
0
  6
HILFSLINIE
 62
     8
 10
     646.170532
 20
     313.649780
 11
     521.170532
 21
     313.649780
  0
LINE
  8
0
  6
HILFSLINIE
 62
     8
 10
     714.170532
 20
     931.649719
 11
     714.170532
 21
     381.649780
  0
LINE
  8
0
  6
HILFSLINIE
 62
     8
 10
     780.170532
 20
     931.649719
 11
     780.170532
 21
     381.649780
  0
LINE
  8
0
  6
HILFSLINIE
 62
     8
 10
     646.170532
 20
     247.649780
 11
     521.170532
 21
     247.649780
  0
LINE
  8
0
  6
HILFSLINIE
 62
     8
 10
      62.170593
 20
     706.649719
 11
      62.170593
 21
     931.649719
  0
LINE
  8
0
  6
HILFSLINIE
 62
     8
 10
     196.170578
 20
    1065.649658
 11
     646.170532
 21
    1065.649658
  0
LINE
  8
0
  6
HILFSLINIE
 62
     8
 10
      44.170601
 20
    1100.649658
 11
     798.170532
 21
    1100.649658
  0
LINE
  8
0
  6
HILFSLINIE
 62
     8
 10
      27.170601
 20
     706.649719
 11
      27.170601
 21
    1083.649658
  0
LINE
  8
0
  6
HILFSLINIE
 62
     8
 10
     798.170532
 20
     212.649796
 11
     521.170532
 21
     212.649796
  0
LINE
  8
0
  6
HILFSLINIE
 62
     8
 10
     815.170532
 20
    1083.649658
 11
     815.170532
 21
     229.649796
  0
ARC
  8
0
  6
HILFSLINIE
 62
     8
 10
     646.170532
 20
     931.649719
 40
      67.999992
 50
       0.000000
 51
      90.000000
  0
ARC
  8
0
  6
HILFSLINIE
 62
     8
 10
     196.170578
 20
     931.649719
 40
      67.999992
 50
      90.000000
 51
     180.000000
  0
ARC
  8
0
  6
HILFSLINIE
 62
     8
 10
     521.170532
 20
     706.649719
 40
     392.999939
 50
     180.000000
 51
     270.000000
  0
ARC
  8
0
  6
HILFSLINIE
 62
     8
 10
     646.170532
 20
     381.649780
 40
      67.999992
 50
     270.000000
 51
       0.000000
  0
ARC
  8
0
  6
HILFSLINIE
 62
     8
 10
     646.170532
 20
     931.649719
 40
     133.999985
 50
       0.000000
 51
      90.000000
  0
ARC
  8
0
  6
HILFSLINIE
 62
     8
 10
     646.170532
 20
     381.649780
 40
     133.999985
 50
     270.000000
 51
       0.000000
  0
ARC
  8
0
  6
HILFSLINIE
 62
     8
 10
     521.170532
 20
     706.649719
 40
     458.999939
 50
     180.000000
 51
     270.000000
  0
ARC
  8
0
  6
HILFSLINIE
 62
     8
 10
     196.170578
 20
     931.649719
 40
     133.999985
 50
      90.000000
 51
     180.000000
  0
ARC
  8
0
  6
HILFSLINIE
 62
     8
 10
      44.170601
 20
    1083.649658
 40
      16.999998
 50
      90.000000
 51
     180.000000
  0
ARC
  8
0
  6
HILFSLINIE
 62
     8
 10
     521.170532
 20
     706.649719
 40
     493.999939
 50
     180.000000
 51
     270.000000
  0
ARC
  8
0
  6
HILFSLINIE
 62
     8
 10
     798.170532
 20
     229.649796
 40
      16.999998
 50
     270.000000
 51
       0.000000
  0
ARC
  8
0
  6
HILFSLINIE
 62
     8
 10
     798.170532
 20
    1083.649658
 40
      16.999998
 50
       0.000000
 51
      90.000000
  0
CIRCLE
  8
0
  6
HILFSLINIE
 62
     8
 10
     631.170532
 20
     396.649780
 40
      56.999992
  0
LINE
  8
0
  6
MITTELLINIE
 62
     8
 10
    1421.170410
 20
    1311.647705
 11
    1421.170410
 21
    1405.149658
  0
LINE
  8
0
  6
MITTELLINIE
 62
     8
 10
    1731.170410
 20
    1412.848877
 11
    1731.170410
 21
    1303.649658
  0
LINE
  8
0
  6
MITTELLINIE
 62
     8
 10
     421.170563
 20
    1311.647705
 11
     421.170563
 21
    1401.069580
  0
LINE
  8
0
  6
MITTELLINIE
 62
     8
 10
      21.170601
 20
     656.649719
 11
     821.170532
 21
     656.649719
  0
LINE
  8
0
  6
MITTELLINIE
 62
     8
 10
     421.170563
 20
     186.448624
 11
     421.170563
 21
    1106.649658
  0
LINE
  8
0
  6
MITTELLINIE
 62
     8
 10
     565.170532
 20
     396.649780
 11
     697.170532
 21
     396.649780
  0
LINE
  8
0
  6
MITTELLINIE
 62
     8
 10
     631.170532
 20
     462.649780
 11
     631.170532
 21
     330.649780
  0
LINE
  8
0
  6
MITTELLINIE
 62
     8
 10
     631.170532
 20
    1412.848877
 11
     631.170532
 21
    1303.649658
  0
LINE
  8
0
 10
    1663.383301
 20
    1334.923096
 11
    1501.993408
 21
    1339.149658
  0
LINE
  8
0
 10
    1798.958008
 20
    1334.923096
 11
    1814.453613
 21
    1335.329346
  0
LINE
  8
0
 10
    1682.606445
 20
    1322.811768
 11
    1779.788574
 21
    1322.811768
  0
LINE
  8
0
 10
    1921.170410
 20
    1345.149658
 11
    1921.170410
 21
    1365.149658
  0
LINE
  8
0
 10
    1027.170532
 20
    1339.149658
 11
    1915.170410
 21
    1339.149658
  0
LINE
  8
0
 10
    1021.170532
 20
    1345.149658
 11
    1021.170532
 21
    1365.149658
  0
LINE
  8
0
 10
    1027.170532
 20
    1371.149658
 11
    1915.170410
 21
    1371.149658
  0
LINE
  8
0
 10
     563.383179
 20
    1334.923096
 11
     401.993561
 21
    1339.149658
  0
LINE
  8
0
 10
     698.958130
 20
    1334.923096
 11
     714.453491
 21
    1335.329346
  0
LINE
  8
0
 10
     582.606567
 20
    1322.811768
 11
     679.788940
 21
    1322.811768
  0
LINE
  8
0
 10
     821.170532
 20
    1345.149658
 11
     821.170532
 21
    1365.149658
  0
LINE
  8
0
 10
      27.170601
 20
    1339.149658
 11
     815.170532
 21
    1339.149658
  0
LINE
  8
0
 10
      21.170601
 20
    1345.149658
 11
      21.170601
 21
    1365.149658
  0
LINE
  8
0
 10
      27.170601
 20
    1371.149658
 11
     815.170532
 21
    1371.149658
  0
LINE
  8
0
 10
     761.170532
 20
     931.649719
 11
     761.170532
 21
     381.649780
  0
LINE
  8
0
 10
     646.170532
 20
     266.649780
 11
     521.170532
 21
     266.649780
  0
LINE
  8
0
 10
      81.170593
 20
     706.649719
 11
      81.170593
 21
     931.649719
  0
LINE
  8
0
 10
     196.170578
 20
    1046.649658
 11
     646.170532
 21
    1046.649658
  0
LINE
  8
0
 10
      21.170601
 20
     706.649719
 11
      21.170601
 21
    1083.649658
  0
LINE
  8
0
 10
     798.170532
 20
     206.649796
 11
     521.170532
 21
     206.649796
  0
LINE
  8
0
 10
     821.170532
 20
    1083.649658
 11
     821.170532
 21
     229.649796
  0
LINE
  8
0
 10
      44.170601
 20
    1106.649658
 11
     798.170532
 21
    1106.649658
  0
ARC
  8
0
 10
    1813.327637
 20
    1378.313721
 40
      42.999725
 50
     271.500519
 51
     294.382233
  0
ARC
  8
0
 10
    1027.170532
 20
    1365.149658
 40
       5.999999
 50
      90.000000
 51
     180.000000
  0
ARC
  8
0
 10
    1915.170410
 20
    1345.149658
 40
       5.999999
 50
     270.000000
 51
       0.000000
  0
ARC
  8
0
 10
    1915.170410
 20
    1365.149658
 40
       5.999999
 50
       0.000000
 51
      90.000000
  0
ARC
  8
0
 10
    1779.788574
 20
    1329.811768
 40
       6.999999
 50
     270.000000
 51
     333.306244
  0
ARC
  8
0
 10
    1662.895996
 20
    1319.930908
 40
      14.999998
 50
      26.685162
 51
      88.199837
  0
ARC
  8
0
 10
    1682.552246
 20
    1329.811768
 40
       6.999999
 50
     206.693726
 51
     270.000000
  0
ARC
  8
0
 10
    1799.444824
 20
    1319.930908
 40
      14.999998
 50
      91.798302
 51
     153.314835
  0
ARC
  8
0
 10
    1027.170532
 20
    1345.149658
 40
       5.999999
 50
     180.000000
 51
     270.000000
  0
ARC
  8
0
 10
     713.327515
 20
    1378.313721
 40
      42.999725
 50
     271.500519
 51
     294.382233
  0
ARC
  8
0
 10
      27.170601
 20
    1365.149658
 40
       5.999999
 50
      90.000000
 51
     180.000000
  0
ARC
  8
0
 10
     815.170532
 20
    1345.149658
 40
       5.999999
 50
     270.000000
 51
       0.000000
  0
ARC
  8
0
 10
     815.170532
 20
    1365.149658
 40
       5.999999
 50
       0.000000
 51
      90.000000
  0
ARC
  8
0
 10
     679.788940
 20
    1329.811768
 40
       6.999999
 50
     270.000000
 51
     333.306244
  0
ARC
  8
0
 10
     562.896118
 20
    1319.930908
 40
      14.999998
 50
      26.685579
 51
      88.199837
  0
ARC
  8
0
 10
     582.552368
 20
    1329.811768
 40
       6.999999
 50
     206.692841
 51
     270.000000
  0
ARC
  8
0
 10
     699.445190
 20
    1319.930908
 40
      14.999998
 50
      91.800163
 51
     153.314835
  0
ARC
  8
0
 10
      27.170601
 20
    1345.149658
 40
       5.999999
 50
     180.000000
 51
     270.000000
  0
ARC
  8
0
 10
     798.170532
 20
     229.649796
 40
      22.999998
 50
     270.000000
 51
       0.000000
  0
ARC
  8
0
 10
     798.170532
 20
    1083.649658
 40
      22.999998
 50
       0.000000
 51
      90.000000
  0
ARC
  8
0
 10
      44.170601
 20
    1083.649658
 40
      22.999998
 50
      90.000000
 51
     180.000000
  0
ARC
  8
0
 10
     646.170532
 20
     931.649719
 40
     114.999985
 50
       0.000000
 51
      90.000000
  0
ARC
  8
0
 10
     646.170532
 20
     381.649780
 40
     114.999985
 50
     270.000000
 51
       0.000000
  0
ARC
  8
0
 10
     521.170532
 20
     706.649719
 40
     439.999939
 50
     180.000000
 51
     270.000000
  0
ARC
  8
0
 10
     196.170578
 20
     931.649719
 40
     114.999985
 50
      90.000000
 51
     180.000000
  0
ARC
  8
0
 10
     521.170532
 20
     706.649719
 40
     499.999939
 50
     180.000000
 51
     270.000000
  0
CIRCLE
  8
0
 10
     631.170532
 20
     396.649780
 40
      44.999996
  0
TEXT
  8
0
 10
    1112.577759
 20
     969.999329
 40
      99.999992
 50
       0.000000
 51
       0.000000
 41
       0.746667
  1
ZIRKON
 72
     3
 11
    1405.911011
 21
     969.999329
  0
TEXT
  8
0
 10
    1933.569824
 20
     594.722046
 40
      66.666664
 50
       0.000000
 51
       0.000000
 41
       0.910000
  1
35
 72
     3
 11
    2002.903198
 21
     594.722046
  0
TEXT
  8
0
 10
    1600.236328
 20
     594.722046
 40
      66.666664
 50
       0.000000
 51
       0.000000
 41
       0.910000
  1
900
 72
     3
 11
    1712.902954
 21
     594.722046
  0
TEXT
  8
0
 10
    1266.903320
 20
     594.723999
 40
      66.666664
 50
       0.000000
 51
       0.000000
 41
       0.910000
  1
800
 72
     3
 11
    1379.569946
 21
     594.723999
  0
TEXT
  8
0
 10
    1933.569824
 20
     794.721985
 40
      66.666664
 50
       0.000000
 51
       0.000000
 41
       0.910000
  1
Tiefe
 72
     3
 11
    2100.403076
 21
     794.721985
  0
TEXT
  8
0
 10
    1600.237305
 20
     794.721985
 40
      66.666664
 50
       0.000000
 51
       0.000000
 41
       0.910000
  1
Breite
 72
     3
 11
    1799.007324
 21
     794.721985
  0
TEXT
  8
0
 10
    1266.904297
 20
     794.723938
 40
      66.666664
 50
       0.000000
 51
       0.000000
 41
       0.910000
  1
Laenge
 72
     3
 11
    1509.570923
 21
     794.723938
  0
TEXT
  8
0
 10
     933.571350
 20
     794.723938
 40
      66.666664
 50
       0.000000
 51
       0.000000
 41
       0.910000
  1
Modell
 72
     3
 11
    1141.571411
 21
     794.723938
  0
TEXT
  8
0
 10
     966.823303
 20
     590.643921
 40
      66.666664
 50
       0.000000
 51
       0.000000
 41
       0.910000
  1
601
 72
     3
 11
    1068.656616
 21
     590.643921
  0
ENDSEC
  0
EOF
