  0
SECTION
  2
HEADER
  9
$ACADVER
  1
AC1009
  9
$ANGBASE
 50
       0.000000
  9
$ANGDIR
 70
     0
  9
$ATTDIA
 70
     0
  9
$ATTMODE
 70
     0
  9
$ATTREQ
 70
     0
  9
$AUNITS
 70
     0
  9
$AUPREC
 70
     1
  9
$BLIPMODE
 70
     1
  9
$CECOLOR
 62
   256
  9
$CELTYPE
  6
BYLAYER
  9
$CHAMFERA
 40
       0.000000
  9
$CHAMFERB
 40
       0.000000
  9
$CLAYER
  8
0
  9
$COORDS
 70
     1
  9
$DIMALT
 70
     0
  9
$DIMALTD
 70
     2
  9
$DIMALTF
 40
      25.400000
  9
$DIMAPOST
  1

  9
$DIMASO
 70
     0
  9
$DIMASZ
 40
       3.500000
  9
$DIMBLK
  1

  9
$DIMBLK1
  1

  9
$DIMBLK2
  1

  9
$DIMCEN
 40
       1.500000
  9
$DIMCLRD
 70
     0
  9
$DIMCLRE
 70
     0
  9
$DIMCLRT
 70
     0
  9
$DIMDLE
 40
       0.000000
  9
$DIMDLI
 40
       7.000000
  9
$DIMEXE
 40
       1.800000
  9
$DIMEXO
 40
       0.100000
  9
$DIMGAP
 40
       0.090000
  9
$DIMLFAC
 40
       1.000000
  9
$DIMLIM
 70
     0
  9
$DIMPOST
  1

  9
$DIMRND
 40
       0.000000
  9
$DIMSAH
 70
     0
  9
$DIMSCALE
 40
       1.000000
  9
$DIMSE1
 70
     0
  9
$DIMSE2
 70
     0
  9
$DIMSHO
 70
     1
  9
$DIMSOXD
 70
     0
  9
$DIMSTYLE
  2
*UNNAMED
  9
$DIMTAD
 70
     1
  9
$DIMTFAC
 40
       1.000000
  9
$DIMTIH
 70
     0
  9
$DIMTIX
 70
     0
  9
$DIMTM
 40
       0.000000
  9
$DIMTOFL
 70
     0
  9
$DIMTOH
 70
     0
  9
$DIMTOL
 70
     0
  9
$DIMTP
 40
       0.000000
  9
$DIMTSZ
 40
       0.000000
  9
$DIMTVP
 40
       0.000000
  9
$DIMTXT
 40
       3.500000
  9
$DIMZIN
 70
     0
  9
$DRAGMODE
 70
     2
  9
$DWGCODEPAGE
  3
dos850
  9
$ELEVATION
 40
       0.000000
  9
$EXTMAX
 10
    2360.638672
 20
    1748.336914
 30
       0.000000
  9
$EXTMIN
 10
       0.000000
 20
       0.000000
 30
       0.000000
  9
$FILLETRAD
 40
       0.000000
  9
$FILLMODE
 70
     1
  9
$HANDLING
 70
     0
  9
$HANDSEED
  5
0
  9
$INSBASE
 10
       0.000000
 20
       0.000000
 30
       0.000000
  9
$LIMCHECK
 70
     0
  9
$LIMMAX
 10
    2360.638672
 20
    1748.336914
  9
$LIMMIN
 10
       0.000000
 20
       0.000000
  9
$LTSCALE
 40
       1.000000
  9
$LUNITS
 70
     2
  9
$LUPREC
 70
     2
  9
$MAXACTVP
 70
    16
  9
$MENU
  1
ACAD
  9
$MIRRTEXT
 70
     0
  9
$ORTHOMODE
 70
     0
  9
$OSMODE
 70
     0
  9
$PDMODE
 70
     0
  9
$PDSIZE
 40
       0.000000
  9
$PELEVATION
 40
       0.000000
  9
$PEXTMAX
 10
    2360.638672
 20
    1748.336914
 30
       0.000000
  9
$PEXTMIN
 10
       0.000000
 20
       0.000000
 30
       0.000000
  9
$PINSBASE
 10
       0.000000
 20
       0.000000
 30
       0.000000
  9
$PLIMCHECK
 70
     0
  9
$PLIMMAX
 10
    2360.638672
 20
    1748.336914
  9
$PLIMMIN
 10
       0.000000
 20
       0.000000
  9
$PLINEGEN
 70
     0
  9
$PLINEWID
 40
       0.000000
  9
$PSLTSCALE
 70
     1
  9
$PUCSNAME
  2

  9
$PUCSORG
 10
       0.000000
 20
       0.000000
 30
       0.000000
  9
$PUCSXDIR
 10
       1.000000
 20
       0.000000
 30
       0.000000
  9
$PUCSYDIR
 10
       0.000000
 20
       1.000000
 30
       0.000000
  9
$QTEXTMODE
 70
     0
  9
$REGENMODE
 70
     1
  9
$SHADEDGE
 70
     3
  9
$SHADEDIF
 70
    70
  9
$SKETCHINC
 40
       1.000000
  9
$SKPOLY
 70
     0
  9
$SPLFRAME
 70
     0
  9
$SPLINESEGS
 70
     8
  9
$SPLINETYPE
 70
     6
  9
$SURFTAB1
 70
     6
  9
$SURFTAB2
 70
     6
  9
$SURFTYPE
 70
     6
  9
$SURFU
 70
     6
  9
$SURFV
 70
     6
  9
$TDCREATE
 40
2453461.5631944444
  9
$TDINDWG
 40
       0.000000
  9
$TDUPDATE
 40
2453461.5631944444
  9
$TDUSRTIMER
 40
       0.000000
  9
$TEXTSIZE
 40
       3.500000
  9
$TEXTSTYLE
  7
STANDARD
  9
$THICKNESS
 40
       0.000000
  9
$TILEMODE
 70
     1
  9
$TRACEWID
 40
       1.000000
  9
$TREEDEPTH
 70
 -3020
  9
$UCSNAME
  2

  9
$UCSORG
 10
       0.000000
 20
       0.000000
 30
       0.000000
  9
$UCSXDIR
 10
       1.000000
 20
       0.000000
 30
       0.000000
  9
$UCSYDIR
 10
       0.000000
 20
       1.000000
 30
       0.000000
  9
$UNITMODE
 70
     0
  9
$USERI1
 70
     0
  9
$USERI2
 70
     0
  9
$USERI3
 70
     0
  9
$USERI4
 70
     0
  9
$USERI5
 70
     0
  9
$USERR1
 40
       0.000000
  9
$USERR2
 40
       0.000000
  9
$USERR3
 40
       0.000000
  9
$USERR4
 40
       0.000000
  9
$USERR5
 40
       0.000000
  9
$USRTIMER
 70
     0
  9
$VISRETAIN
 70
     0
  9
$WORLDVIEW
 70
     1
  0
ENDSEC
  0
SECTION
  2
TABLES
  0
TABLE
  2
LTYPE
 70
    16
  0
LTYPE
  2
AUSGEZOGEN
 70
     0
  3
________________
 72
    65
 73
     0
 40
       0.000000
  0
LTYPE
  2
VERDECKTE_KANTE
 70
     0
  3
____________
 72
    65
 73
     2
 40
5.
 49
4.
 49
-1.
  0
LTYPE
  2
HILFSLINIE
 70
     0
  3
________________
 72
    65
 73
     0
 40
       0.000000
  0
LTYPE
  2
BRUCHLINIE
 70
     0
  3
________________
 72
    65
 73
     0
 40
       0.000000
  0
LTYPE
  2
MITTELLINIE
 70
     0
  3
__________ _
 72
    65
 73
     4
 40
13.
 49
10.
 49
-1.
 49
1.
 49
-1.
  0
LTYPE
  2
SCHNITTLINIE
 70
     0
  3
__________ _
 72
    65
 73
     4
 40
13.
 49
10.
 49
-1.
 49
1.
 49
-1.
  0
LTYPE
  2
SCHWERLINIE
 70
     0
  3
__________ _ _
 72
    65
 73
     6
 40
15.
 49
10.
 49
-1.
 49
1.
 49
-1.
 49
1.
 49
-1.
  0
LTYPE
  2
ENTWURFSLINIE
 70
     0
  3
_   _   _   _
 72
    65
 73
     8
 40
16.
 49
1.
 49
-3.
 49
1.
 49
-3.
 49
1.
 49
-3.
 49
1.
 49
-3.
  0
LTYPE
  2
SONDERLINIE1
 70
     0
  3
________________
 72
    65
 73
     0
 40
       0.000000
  0
LTYPE
  2
SONDERLINIE2
 70
     0
  3
__________ _ _
 72
    65
 73
     6
 40
15.
 49
10.
 49
-1.
 49
1.
 49
-1.
 49
1.
 49
-1.
  0
LTYPE
  2
SONDERLINIE3
 70
     0
  3
_________ _ _ _
 72
    65
 73
     8
 40
16.
 49
9.
 49
-1.
 49
1.
 49
-1.
 49
1.
 49
-1.
 49
1.
 49
-1.
  0
LTYPE
  2
SONDERLINIE4
 70
     0
  3
_________ _ _ _
 72
    65
 73
     8
 40
16.
 49
9.
 49
-1.
 49
1.
 49
-1.
 49
1.
 49
-1.
 49
1.
 49
-1.
  0
LTYPE
  2
SONDERLINIE5
 70
     0
  3
_______ _ _ _ _
 72
    65
 73
    10
 40
16.
 49
7.
 49
-1.
 49
1.
 49
-1.
 49
1.
 49
-1.
 49
1.
 49
-1.
 49
1.
 49
-1.
  0
LTYPE
  2
SONDERLINIE6
 70
     0
  3
_______ _ _ _ _
 72
    65
 73
    10
 40
16.
 49
7.
 49
-1.
 49
1.
 49
-1.
 49
1.
 49
-1.
 49
1.
 49
-1.
 49
1.
 49
-1.
  0
LTYPE
  2
SONDERLINIE7
 70
     0
  3
_____ _ _ _ _ _
 72
    65
 73
    12
 40
16.
 49
5.
 49
-1.
 49
1.
 49
-1.
 49
1.
 49
-1.
 49
1.
 49
-1.
 49
1.
 49
-1.
 49
1.
 49
-1.
  0
LTYPE
  2
SONDERLINIE8
 70
     0
  3
_____ _ _ _ _ _
 72
    65
 73
    12
 40
16.
 49
5.
 49
-1.
 49
1.
 49
-1.
 49
1.
 49
-1.
 49
1.
 49
-1.
 49
1.
 49
-1.
 49
1.
 49
-1.
  0
ENDTAB
  0
TABLE
  2
LAYER
 70
     1
  0
LAYER
  2
0
 62
     7
  6
AUSGEZOGEN
 70
    64
  0
ENDTAB
  0
TABLE
  2
STYLE
 70
     0
  0
STYLE
  2
STANDARD
 70
     0
 40
     0
 41
       1.000000
 50
       0.000000
 71
     0
 42
       3.500000
  3
isocp
  4

  0
ENDTAB
  0
TABLE
  2
VIEW
 70
     0
  0
ENDTAB
  0
TABLE
  2
VPORT
 70
     2
  0
VPORT
  2
*ACTIVE
 70
     0
 10
       0.000000
 20
       0.000000
 11
       1.000000
 21
       1.000000
 12
    1180.319336
 22
     874.168457
 13
       0.000000
 23
       0.000000
 14
       1.000000
 24
       1.000000
 15
       0.000000
 25
       0.000000
 16
       0.000000
 26
       0.000000
 36
       1.000000
 17
       0.000000
 27
       0.000000
 37
       0.000000
 40
    1748.336914
 41
       1.350219
 42
      50.000000
 43
       0.000000
 44
       0.000000
 50
       0.000000
 51
       0.000000
 71
     0
 72
   100
 73
     1
 74
     1
 75
     0
 76
     0
 77
     0
 78
     0
  0
ENDTAB
  0
TABLE
  2
DIMSTYLE
 70
     1
  0
DIMSTYLE
  2
STDBEM
 70
     0
  3

  4

  5

  6

  7

 40
       1.000000
 41
       3.500000
 42
       0.100000
 43
       7.000000
 44
       1.800000
 45
       0.000000
 46
       0.000000
 47
       0.000000
 48
       0.000000
140
       3.500000
141
       1.500000
142
       0.000000
143
      25.400000
144
       1.000000
145
       0.000000
146
       1.000000
147
       0.090000
 71
     0
 72
     0
 73
     0
 74
     0
 75
     0
 76
     0
 77
     1
 78
     0
170
     0
171
     2
172
     0
173
     0
174
     0
175
     0
176
     0
177
     0
178
     0
  0
ENDTAB
  0
ENDSEC
  0
SECTION
  2
BLOCKS
  0
ENDSEC
  0
SECTION
  2
ENTITIES
  0
LINE
  8
0
  6
HILFSLINIE
 62
     8
 10
    1150.494629
 20
     896.683228
 11
    2337.495117
 21
     896.683228
  0
LINE
  8
0
  6
HILFSLINIE
 62
     8
 10
     681.693848
 20
    1104.067993
 11
     231.693848
 21
    1104.067993
  0
LINE
  8
0
  6
HILFSLINIE
 62
     8
 10
     749.693848
 20
     811.067993
 11
     749.693848
 21
    1036.067993
  0
LINE
  8
0
  6
HILFSLINIE
 62
     8
 10
     231.693848
 20
     418.067993
 11
     356.693848
 21
     418.067993
  0
LINE
  8
0
  6
HILFSLINIE
 62
     8
 10
     163.693848
 20
    1036.067993
 11
     163.693848
 21
     486.067993
  0
LINE
  8
0
  6
HILFSLINIE
 62
     8
 10
      97.693848
 20
    1036.067993
 11
      97.693848
 21
     486.067993
  0
LINE
  8
0
  6
HILFSLINIE
 62
     8
 10
     231.693848
 20
     352.067993
 11
     356.693848
 21
     352.067993
  0
LINE
  8
0
  6
HILFSLINIE
 62
     8
 10
     815.693848
 20
     811.067993
 11
     815.693848
 21
    1036.067993
  0
LINE
  8
0
  6
HILFSLINIE
 62
     8
 10
     681.693848
 20
    1170.067993
 11
     231.693848
 21
    1170.067993
  0
LINE
  8
0
  6
HILFSLINIE
 62
     8
 10
     833.693848
 20
    1205.067993
 11
      79.693848
 21
    1205.067993
  0
LINE
  8
0
  6
HILFSLINIE
 62
     8
 10
     850.693848
 20
     811.067993
 11
     850.693848
 21
    1188.067993
  0
LINE
  8
0
  6
HILFSLINIE
 62
     8
 10
      79.693848
 20
     317.067993
 11
     356.693848
 21
     317.067993
  0
LINE
  8
0
  6
HILFSLINIE
 62
     8
 10
      62.693848
 20
    1188.067993
 11
      62.693848
 21
     334.067993
  0
ARC
  8
0
  6
HILFSLINIE
 62
     8
 10
     231.693848
 20
    1036.067993
 40
      68.000000
 50
      90.000000
 51
     180.000000
  0
ARC
  8
0
  6
HILFSLINIE
 62
     8
 10
     681.693848
 20
    1036.067993
 40
      68.000000
 50
       0.000000
 51
      90.000000
  0
ARC
  8
0
  6
HILFSLINIE
 62
     8
 10
     356.693848
 20
     811.067993
 40
     393.000000
 50
     270.000000
 51
       0.000000
  0
ARC
  8
0
  6
HILFSLINIE
 62
     8
 10
     231.693848
 20
     486.067993
 40
      68.000000
 50
     180.000000
 51
     270.000000
  0
ARC
  8
0
  6
HILFSLINIE
 62
     8
 10
     231.693848
 20
    1036.067993
 40
     134.000000
 50
      90.000000
 51
     180.000000
  0
ARC
  8
0
  6
HILFSLINIE
 62
     8
 10
     231.693848
 20
     486.067993
 40
     134.000000
 50
     180.000000
 51
     270.000000
  0
ARC
  8
0
  6
HILFSLINIE
 62
     8
 10
     356.693848
 20
     811.067993
 40
     459.000000
 50
     270.000000
 51
       0.000000
  0
ARC
  8
0
  6
HILFSLINIE
 62
     8
 10
     681.693848
 20
    1036.067993
 40
     134.000000
 50
       0.000000
 51
      90.000000
  0
ARC
  8
0
  6
HILFSLINIE
 62
     8
 10
     833.693848
 20
    1188.067993
 40
      17.000000
 50
       0.000000
 51
      90.000000
  0
ARC
  8
0
  6
HILFSLINIE
 62
     8
 10
     356.693848
 20
     811.067993
 40
     494.000000
 50
     270.000000
 51
       0.000000
  0
ARC
  8
0
  6
HILFSLINIE
 62
     8
 10
      79.693848
 20
     334.067993
 40
      17.000000
 50
     180.000000
 51
     270.000000
  0
ARC
  8
0
  6
HILFSLINIE
 62
     8
 10
      79.693848
 20
    1188.067993
 40
      17.000000
 50
      90.000000
 51
     180.000000
  0
CIRCLE
  8
0
  6
HILFSLINIE
 62
     8
 10
     246.693848
 20
     501.067993
 40
      57.000000
  0
LINE
  8
0
  6
MITTELLINIE
 62
     8
 10
    1728.733398
 20
    1407.267212
 11
    1728.733398
 21
    1298.067993
  0
LINE
  8
0
  6
MITTELLINIE
 62
     8
 10
     890.243896
 20
     761.067993
 11
      23.143799
 21
     761.067993
  0
LINE
  8
0
  6
MITTELLINIE
 62
     8
 10
     456.693848
 20
    1336.066040
 11
     456.693848
 21
    1395.567993
  0
LINE
  8
0
  6
MITTELLINIE
 62
     8
 10
     456.693848
 20
     311.067993
 11
     456.693848
 21
    1230.366821
  0
LINE
  8
0
  6
MITTELLINIE
 62
     8
 10
     312.693848
 20
     501.067993
 11
     180.693848
 21
     501.067993
  0
LINE
  8
0
  6
MITTELLINIE
 62
     8
 10
     246.693848
 20
     567.067993
 11
     246.693848
 21
     435.067993
  0
LINE
  8
0
  6
MITTELLINIE
 62
     8
 10
     246.693848
 20
    1437.267212
 11
     246.693848
 21
    1328.067993
  0
LINE
  8
0
  6
MITTELLINIE
 62
     8
 10
    1468.733398
 20
    1303.025024
 11
    1468.733398
 21
    1422.034790
  0
ARC
  8
0
 10
     164.537109
 20
    1402.732056
 40
      42.999729
 50
     245.617752
 51
     268.499481
  0
ARC
  8
0
 10
    1660.610352
 20
    1344.052368
 40
      15.000000
 50
      27.556837
 51
      88.746521
  0
ARC
  8
0
 10
    1810.891602
 20
    1402.732056
 40
      42.999729
 50
     271.499207
 51
     294.381622
  0
ARC
  8
0
 10
    1680.116211
 20
    1354.230103
 40
       7.000000
 50
     207.555283
 51
     270.000000
  0
ARC
  8
0
 10
    1797.008789
 20
    1344.349243
 40
      15.000000
 50
      91.798302
 51
     153.314835
  0
ARC
  8
0
 10
    1777.352539
 20
    1354.230103
 40
       7.000000
 50
     270.000000
 51
     333.306244
  0
ARC
  8
0
 10
    1912.733398
 20
    1389.567993
 40
       6.000000
 50
       0.000000
 51
      90.000000
  0
ARC
  8
0
 10
    1024.733398
 20
    1389.567993
 40
       6.000000
 50
      90.000000
 51
     180.000000
  0
ARC
  8
0
 10
    1024.733398
 20
    1369.567993
 40
       6.000000
 50
     180.000000
 51
     270.000000
  0
ARC
  8
0
 10
    1912.733398
 20
    1369.567993
 40
       6.000000
 50
     270.000000
 51
       0.000000
  0
ARC
  8
0
 10
     850.693848
 20
    1389.567993
 40
       6.000000
 50
       0.000000
 51
      90.000000
  0
ARC
  8
0
 10
      62.693848
 20
    1369.567993
 40
       6.000000
 50
     180.000000
 51
     270.000000
  0
ARC
  8
0
 10
      62.693848
 20
    1389.567993
 40
       6.000000
 50
      90.000000
 51
     180.000000
  0
ARC
  8
0
 10
     198.075684
 20
    1354.230103
 40
       7.000000
 50
     206.692841
 51
     270.000000
  0
ARC
  8
0
 10
     314.968506
 20
    1344.349243
 40
      15.000000
 50
      91.800163
 51
     153.314835
  0
ARC
  8
0
 10
     295.312256
 20
    1354.230103
 40
       7.000000
 50
     270.000000
 51
     333.306244
  0
ARC
  8
0
 10
     178.419434
 20
    1344.349243
 40
      15.000000
 50
      26.685579
 51
      88.199837
  0
ARC
  8
0
 10
     850.693848
 20
    1369.567993
 40
       6.000000
 50
     270.000000
 51
       0.000000
  0
ARC
  8
0
 10
      79.693848
 20
     334.067993
 40
      23.000000
 50
     180.000000
 51
     270.000000
  0
ARC
  8
0
 10
      79.693848
 20
    1188.067993
 40
      23.000000
 50
      90.000000
 51
     180.000000
  0
ARC
  8
0
 10
     833.693848
 20
    1188.067993
 40
      23.000000
 50
       0.000000
 51
      90.000000
  0
ARC
  8
0
 10
     231.693848
 20
    1036.067993
 40
     115.000000
 50
      90.000000
 51
     180.000000
  0
ARC
  8
0
 10
     231.693848
 20
     486.067993
 40
     115.000000
 50
     180.000000
 51
     270.000000
  0
ARC
  8
0
 10
     356.693848
 20
     811.067993
 40
     440.000000
 50
     270.000000
 51
       0.000000
  0
ARC
  8
0
 10
     681.693848
 20
    1036.067993
 40
     115.000000
 50
       0.000000
 51
      90.000000
  0
ARC
  8
0
 10
     356.693848
 20
     811.067993
 40
     500.000000
 50
     270.000000
 51
       0.000000
  0
LINE
  8
0
 10
    1660.938477
 20
    1359.050415
 11
    1454.300049
 21
    1363.567993
  0
LINE
  8
0
 10
    1796.522461
 20
    1359.341431
 11
    1812.016602
 21
    1359.747681
  0
LINE
  8
0
 10
    1024.733398
 20
    1363.567993
 11
    1912.733398
 21
    1363.567993
  0
LINE
  8
0
 10
    1680.168945
 20
    1347.230103
 11
    1777.352539
 21
    1347.230103
  0
LINE
  8
0
 10
    1018.733398
 20
    1369.567993
 11
    1018.733398
 21
    1389.567993
  0
LINE
  8
0
 10
    1918.733398
 20
    1389.567993
 11
    1918.733398
 21
    1369.567993
  0
LINE
  8
0
 10
    1024.733398
 20
    1395.567993
 11
    1912.733398
 21
    1395.567993
  0
LINE
  8
0
 10
     314.481445
 20
    1359.341431
 11
     475.886719
 21
    1363.567993
  0
LINE
  8
0
 10
     178.906250
 20
    1359.341431
 11
     163.411133
 21
    1359.747681
  0
LINE
  8
0
 10
     295.258057
 20
    1347.230103
 11
     198.075684
 21
    1347.230103
  0
LINE
  8
0
 10
      62.693848
 20
    1363.567993
 11
     850.693848
 21
    1363.567993
  0
LINE
  8
0
 10
      56.693848
 20
    1369.567993
 11
      56.693848
 21
    1389.567993
  0
LINE
  8
0
 10
     856.693848
 20
    1369.567993
 11
     856.693848
 21
    1389.567993
  0
LINE
  8
0
 10
     850.693848
 20
    1395.567993
 11
      62.693848
 21
    1395.567993
  0
LINE
  8
0
 10
     116.693848
 20
    1036.067993
 11
     116.693848
 21
     486.067993
  0
LINE
  8
0
 10
     231.693848
 20
     371.067993
 11
     356.693848
 21
     371.067993
  0
LINE
  8
0
 10
     796.693848
 20
     811.067993
 11
     796.693848
 21
    1036.067993
  0
LINE
  8
0
 10
     681.693848
 20
    1151.067993
 11
     231.693848
 21
    1151.067993
  0
LINE
  8
0
 10
     856.693848
 20
     811.067993
 11
     856.693848
 21
    1188.067993
  0
LINE
  8
0
 10
      79.693848
 20
     311.067993
 11
     356.693848
 21
     311.067993
  0
LINE
  8
0
 10
      56.693848
 20
    1188.067993
 11
      56.693848
 21
     334.067993
  0
LINE
  8
0
 10
     833.693848
 20
    1211.067993
 11
      79.693848
 21
    1211.067993
  0
CIRCLE
  8
0
 10
     246.693848
 20
     501.067993
 40
      45.000000
  0
TEXT
  8
0
 10
    1311.840820
 20
    1136.624634
 40
     100.000008
 50
       0.000000
 51
       0.000000
 41
       0.746667
  1
ZIRKON
 72
     3
 11
    1605.174072
 21
    1136.624634
  0
TEXT
  8
0
 10
    2132.833008
 20
     761.347290
 40
      66.666672
 50
       0.000000
 51
       0.000000
 41
       0.910000
  1
35
 72
     3
 11
    2202.166260
 21
     761.347290
  0
TEXT
  8
0
 10
    1799.499512
 20
     761.347290
 40
      66.666672
 50
       0.000000
 51
       0.000000
 41
       0.910000
  1
800
 72
     3
 11
    1912.166138
 21
     761.347290
  0
TEXT
  8
0
 10
    1466.166504
 20
     761.349243
 40
      66.666672
 50
       0.000000
 51
       0.000000
 41
       0.910000
  1
900
 72
     3
 11
    1578.833130
 21
     761.349243
  0
TEXT
  8
0
 10
    1132.833496
 20
     761.349243
 40
      66.666672
 50
       0.000000
 51
       0.000000
 41
       0.910000
  1
603
 72
     3
 11
    1245.500122
 21
     761.349243
  0
TEXT
  8
0
 10
    2132.833008
 20
     961.347290
 40
      66.666672
 50
       0.000000
 51
       0.000000
 41
       0.910000
  1
Tiefe
 72
     3
 11
    2299.666260
 21
     961.347290
  0
TEXT
  8
0
 10
    1799.500488
 20
     961.347290
 40
      66.666672
 50
       0.000000
 51
       0.000000
 41
       0.910000
  1
Breite
 72
     3
 11
    1998.270508
 21
     961.347290
  0
TEXT
  8
0
 10
    1466.167480
 20
     961.349243
 40
      66.666672
 50
       0.000000
 51
       0.000000
 41
       0.910000
  1
Laenge
 72
     3
 11
    1708.834229
 21
     961.349243
  0
TEXT
  8
0
 10
    1132.834473
 20
     961.349243
 40
      66.666672
 50
       0.000000
 51
       0.000000
 41
       0.910000
  1
Modell
 72
     3
 11
    1340.834473
 21
     961.349243
  0
ENDSEC
  0
EOF
