  0
SECTION
  2
HEADER
  9
$ACADVER
  1
AC1009
  9
$ANGBASE
 50
       0.000000
  9
$ANGDIR
 70
     0
  9
$ATTDIA
 70
     0
  9
$ATTMODE
 70
     0
  9
$ATTREQ
 70
     0
  9
$AUNITS
 70
     0
  9
$AUPREC
 70
     1
  9
$BLIPMODE
 70
     1
  9
$CECOLOR
 62
   256
  9
$CELTYPE
  6
BYLAYER
  9
$CHAMFERA
 40
       0.000000
  9
$CHAMFERB
 40
       0.000000
  9
$CLAYER
  8
0
  9
$COORDS
 70
     1
  9
$DIMALT
 70
     0
  9
$DIMALTD
 70
     2
  9
$DIMALTF
 40
      25.400000
  9
$DIMAPOST
  1

  9
$DIMASO
 70
     0
  9
$DIMASZ
 40
       3.500000
  9
$DIMBLK
  1

  9
$DIMBLK1
  1

  9
$DIMBLK2
  1

  9
$DIMCEN
 40
       1.500000
  9
$DIMCLRD
 70
     0
  9
$DIMCLRE
 70
     0
  9
$DIMCLRT
 70
     0
  9
$DIMDLE
 40
       0.000000
  9
$DIMDLI
 40
       7.000000
  9
$DIMEXE
 40
       1.800000
  9
$DIMEXO
 40
       0.100000
  9
$DIMGAP
 40
       0.090000
  9
$DIMLFAC
 40
       1.000000
  9
$DIMLIM
 70
     0
  9
$DIMPOST
  1

  9
$DIMRND
 40
       0.000000
  9
$DIMSAH
 70
     0
  9
$DIMSCALE
 40
       1.000000
  9
$DIMSE1
 70
     0
  9
$DIMSE2
 70
     0
  9
$DIMSHO
 70
     1
  9
$DIMSOXD
 70
     0
  9
$DIMSTYLE
  2
*UNNAMED
  9
$DIMTAD
 70
     1
  9
$DIMTFAC
 40
       1.000000
  9
$DIMTIH
 70
     0
  9
$DIMTIX
 70
     0
  9
$DIMTM
 40
       0.000000
  9
$DIMTOFL
 70
     0
  9
$DIMTOH
 70
     0
  9
$DIMTOL
 70
     0
  9
$DIMTP
 40
       0.000000
  9
$DIMTSZ
 40
       0.000000
  9
$DIMTVP
 40
       0.000000
  9
$DIMTXT
 40
       3.500000
  9
$DIMZIN
 70
     0
  9
$DRAGMODE
 70
     2
  9
$DWGCODEPAGE
  3
dos850
  9
$ELEVATION
 40
       0.000000
  9
$EXTMAX
 10
    2519.728271
 20
    1866.161743
 30
       0.000000
  9
$EXTMIN
 10
       0.000000
 20
       0.000000
 30
       0.000000
  9
$FILLETRAD
 40
       0.000000
  9
$FILLMODE
 70
     1
  9
$HANDLING
 70
     0
  9
$HANDSEED
  5
0
  9
$INSBASE
 10
       0.000000
 20
       0.000000
 30
       0.000000
  9
$LIMCHECK
 70
     0
  9
$LIMMAX
 10
    2519.728271
 20
    1866.161743
  9
$LIMMIN
 10
       0.000000
 20
       0.000000
  9
$LTSCALE
 40
       1.000000
  9
$LUNITS
 70
     2
  9
$LUPREC
 70
     2
  9
$MAXACTVP
 70
    16
  9
$MENU
  1
ACAD
  9
$MIRRTEXT
 70
     0
  9
$ORTHOMODE
 70
     0
  9
$OSMODE
 70
     0
  9
$PDMODE
 70
     0
  9
$PDSIZE
 40
       0.000000
  9
$PELEVATION
 40
       0.000000
  9
$PEXTMAX
 10
    2519.728271
 20
    1866.161743
 30
       0.000000
  9
$PEXTMIN
 10
       0.000000
 20
       0.000000
 30
       0.000000
  9
$PINSBASE
 10
       0.000000
 20
       0.000000
 30
       0.000000
  9
$PLIMCHECK
 70
     0
  9
$PLIMMAX
 10
    2519.728271
 20
    1866.161743
  9
$PLIMMIN
 10
       0.000000
 20
       0.000000
  9
$PLINEGEN
 70
     0
  9
$PLINEWID
 40
       0.000000
  9
$PSLTSCALE
 70
     1
  9
$PUCSNAME
  2

  9
$PUCSORG
 10
       0.000000
 20
       0.000000
 30
       0.000000
  9
$PUCSXDIR
 10
       1.000000
 20
       0.000000
 30
       0.000000
  9
$PUCSYDIR
 10
       0.000000
 20
       1.000000
 30
       0.000000
  9
$QTEXTMODE
 70
     0
  9
$REGENMODE
 70
     1
  9
$SHADEDGE
 70
     3
  9
$SHADEDIF
 70
    70
  9
$SKETCHINC
 40
       1.000000
  9
$SKPOLY
 70
     0
  9
$SPLFRAME
 70
     0
  9
$SPLINESEGS
 70
     8
  9
$SPLINETYPE
 70
     6
  9
$SURFTAB1
 70
     6
  9
$SURFTAB2
 70
     6
  9
$SURFTYPE
 70
     6
  9
$SURFU
 70
     6
  9
$SURFV
 70
     6
  9
$TDCREATE
 40
2453461.5659722220
  9
$TDINDWG
 40
       0.000000
  9
$TDUPDATE
 40
2453461.5659722220
  9
$TDUSRTIMER
 40
       0.000000
  9
$TEXTSIZE
 40
       3.500000
  9
$TEXTSTYLE
  7
STANDARD
  9
$THICKNESS
 40
       0.000000
  9
$TILEMODE
 70
     1
  9
$TRACEWID
 40
       1.000000
  9
$TREEDEPTH
 70
 -3020
  9
$UCSNAME
  2

  9
$UCSORG
 10
       0.000000
 20
       0.000000
 30
       0.000000
  9
$UCSXDIR
 10
       1.000000
 20
       0.000000
 30
       0.000000
  9
$UCSYDIR
 10
       0.000000
 20
       1.000000
 30
       0.000000
  9
$UNITMODE
 70
     0
  9
$USERI1
 70
     0
  9
$USERI2
 70
     0
  9
$USERI3
 70
     0
  9
$USERI4
 70
     0
  9
$USERI5
 70
     0
  9
$USERR1
 40
       0.000000
  9
$USERR2
 40
       0.000000
  9
$USERR3
 40
       0.000000
  9
$USERR4
 40
       0.000000
  9
$USERR5
 40
       0.000000
  9
$USRTIMER
 70
     0
  9
$VISRETAIN
 70
     0
  9
$WORLDVIEW
 70
     1
  0
ENDSEC
  0
SECTION
  2
TABLES
  0
TABLE
  2
LTYPE
 70
    16
  0
LTYPE
  2
AUSGEZOGEN
 70
     0
  3
________________
 72
    65
 73
     0
 40
       0.000000
  0
LTYPE
  2
VERDECKTE_KANTE
 70
     0
  3
____________
 72
    65
 73
     2
 40
5.
 49
4.
 49
-1.
  0
LTYPE
  2
HILFSLINIE
 70
     0
  3
________________
 72
    65
 73
     0
 40
       0.000000
  0
LTYPE
  2
BRUCHLINIE
 70
     0
  3
________________
 72
    65
 73
     0
 40
       0.000000
  0
LTYPE
  2
MITTELLINIE
 70
     0
  3
__________ _
 72
    65
 73
     4
 40
13.
 49
10.
 49
-1.
 49
1.
 49
-1.
  0
LTYPE
  2
SCHNITTLINIE
 70
     0
  3
__________ _
 72
    65
 73
     4
 40
13.
 49
10.
 49
-1.
 49
1.
 49
-1.
  0
LTYPE
  2
SCHWERLINIE
 70
     0
  3
__________ _ _
 72
    65
 73
     6
 40
15.
 49
10.
 49
-1.
 49
1.
 49
-1.
 49
1.
 49
-1.
  0
LTYPE
  2
ENTWURFSLINIE
 70
     0
  3
_   _   _   _
 72
    65
 73
     8
 40
16.
 49
1.
 49
-3.
 49
1.
 49
-3.
 49
1.
 49
-3.
 49
1.
 49
-3.
  0
LTYPE
  2
SONDERLINIE1
 70
     0
  3
________________
 72
    65
 73
     0
 40
       0.000000
  0
LTYPE
  2
SONDERLINIE2
 70
     0
  3
__________ _ _
 72
    65
 73
     6
 40
15.
 49
10.
 49
-1.
 49
1.
 49
-1.
 49
1.
 49
-1.
  0
LTYPE
  2
SONDERLINIE3
 70
     0
  3
_________ _ _ _
 72
    65
 73
     8
 40
16.
 49
9.
 49
-1.
 49
1.
 49
-1.
 49
1.
 49
-1.
 49
1.
 49
-1.
  0
LTYPE
  2
SONDERLINIE4
 70
     0
  3
_________ _ _ _
 72
    65
 73
     8
 40
16.
 49
9.
 49
-1.
 49
1.
 49
-1.
 49
1.
 49
-1.
 49
1.
 49
-1.
  0
LTYPE
  2
SONDERLINIE5
 70
     0
  3
_______ _ _ _ _
 72
    65
 73
    10
 40
16.
 49
7.
 49
-1.
 49
1.
 49
-1.
 49
1.
 49
-1.
 49
1.
 49
-1.
 49
1.
 49
-1.
  0
LTYPE
  2
SONDERLINIE6
 70
     0
  3
_______ _ _ _ _
 72
    65
 73
    10
 40
16.
 49
7.
 49
-1.
 49
1.
 49
-1.
 49
1.
 49
-1.
 49
1.
 49
-1.
 49
1.
 49
-1.
  0
LTYPE
  2
SONDERLINIE7
 70
     0
  3
_____ _ _ _ _ _
 72
    65
 73
    12
 40
16.
 49
5.
 49
-1.
 49
1.
 49
-1.
 49
1.
 49
-1.
 49
1.
 49
-1.
 49
1.
 49
-1.
 49
1.
 49
-1.
  0
LTYPE
  2
SONDERLINIE8
 70
     0
  3
_____ _ _ _ _ _
 72
    65
 73
    12
 40
16.
 49
5.
 49
-1.
 49
1.
 49
-1.
 49
1.
 49
-1.
 49
1.
 49
-1.
 49
1.
 49
-1.
 49
1.
 49
-1.
  0
ENDTAB
  0
TABLE
  2
LAYER
 70
     1
  0
LAYER
  2
0
 62
     7
  6
AUSGEZOGEN
 70
    64
  0
ENDTAB
  0
TABLE
  2
STYLE
 70
     0
  0
STYLE
  2
STANDARD
 70
     0
 40
     0
 41
       1.000000
 50
       0.000000
 71
     0
 42
       3.500000
  3
isocp
  4

  0
ENDTAB
  0
TABLE
  2
VIEW
 70
     0
  0
ENDTAB
  0
TABLE
  2
VPORT
 70
     2
  0
VPORT
  2
*ACTIVE
 70
     0
 10
       0.000000
 20
       0.000000
 11
       1.000000
 21
       1.000000
 12
    1259.864136
 22
     933.080872
 13
       0.000000
 23
       0.000000
 14
       1.000000
 24
       1.000000
 15
       0.000000
 25
       0.000000
 16
       0.000000
 26
       0.000000
 36
       1.000000
 17
       0.000000
 27
       0.000000
 37
       0.000000
 40
    1866.161743
 41
       1.350220
 42
      50.000000
 43
       0.000000
 44
       0.000000
 50
       0.000000
 51
       0.000000
 71
     0
 72
   100
 73
     1
 74
     1
 75
     0
 76
     0
 77
     0
 78
     0
  0
ENDTAB
  0
TABLE
  2
DIMSTYLE
 70
     1
  0
DIMSTYLE
  2
STDBEM
 70
     0
  3

  4

  5

  6

  7

 40
       1.000000
 41
       3.500000
 42
       0.100000
 43
       7.000000
 44
       1.800000
 45
       0.000000
 46
       0.000000
 47
       0.000000
 48
       0.000000
140
       3.500000
141
       1.500000
142
       0.000000
143
      25.400000
144
       1.000000
145
       0.000000
146
       1.000000
147
       0.090000
 71
     0
 72
     0
 73
     0
 74
     0
 75
     0
 76
     0
 77
     1
 78
     0
170
     0
171
     2
172
     0
173
     0
174
     0
175
     0
176
     0
177
     0
178
     0
  0
ENDTAB
  0
ENDSEC
  0
SECTION
  2
BLOCKS
  0
ENDSEC
  0
SECTION
  2
ENTITIES
  0
LINE
  8
0
  6
HILFSLINIE
 62
     8
 10
    1308.024048
 20
     934.730286
 11
    2495.024170
 21
     934.730286
  0
LINE
  8
0
  6
HILFSLINIE
 62
     8
 10
     849.703613
 20
    1217.814209
 11
     199.703552
 21
    1217.814209
  0
LINE
  8
0
  6
HILFSLINIE
 62
     8
 10
     929.703369
 20
     487.814331
 11
     929.703613
 21
    1137.814209
  0
LINE
  8
0
  6
HILFSLINIE
 62
     8
 10
     849.703613
 20
     407.814362
 11
     524.703735
 21
     407.814362
  0
LINE
  8
0
  6
HILFSLINIE
 62
     8
 10
     119.703568
 20
     812.814270
 11
     119.703568
 21
    1137.814209
  0
LINE
  8
0
  6
HILFSLINIE
 62
     8
 10
      33.703590
 20
     812.814270
 11
      33.703590
 21
    1292.814209
  0
LINE
  8
0
  6
HILFSLINIE
 62
     8
 10
    1004.703613
 20
     321.814392
 11
     524.703735
 21
     321.814392
  0
LINE
  8
0
  6
HILFSLINIE
 62
     8
 10
    1015.703613
 20
     332.814392
 11
    1015.703613
 21
    1292.814209
  0
LINE
  8
0
  6
HILFSLINIE
 62
     8
 10
    1004.703613
 20
    1303.814209
 11
      44.703590
 21
    1303.814209
  0
ARC
  8
0
  6
HILFSLINIE
 62
     8
 10
     199.703552
 20
    1137.814209
 40
      80.000008
 50
      90.000000
 51
     180.000000
  0
ARC
  8
0
  6
HILFSLINIE
 62
     8
 10
     849.703613
 20
    1137.814209
 40
      79.999992
 50
       0.000000
 51
      90.000000
  0
ARC
  8
0
  6
HILFSLINIE
 62
     8
 10
     849.703613
 20
     487.814331
 40
      79.999954
 50
     270.000000
 51
       0.000000
  0
ARC
  8
0
  6
HILFSLINIE
 62
     8
 10
     524.703491
 20
     812.814270
 40
     404.999939
 50
     180.000000
 51
     270.000031
  0
ARC
  8
0
  6
HILFSLINIE
 62
     8
 10
     524.703491
 20
     812.814270
 40
     490.999878
 50
     180.000000
 51
     270.000031
  0
ARC
  8
0
  6
HILFSLINIE
 62
     8
 10
    1004.703613
 20
     332.814392
 40
      10.999997
 50
     270.000000
 51
       0.000000
  0
ARC
  8
0
  6
HILFSLINIE
 62
     8
 10
    1004.703613
 20
    1292.814209
 40
      10.999997
 50
       0.000000
 51
      90.000000
  0
ARC
  8
0
  6
HILFSLINIE
 62
     8
 10
      44.703590
 20
    1292.814209
 40
      10.999997
 50
      90.000000
 51
     180.000000
  0
CIRCLE
  8
0
  6
HILFSLINIE
 62
     8
 10
     834.703613
 20
     502.814331
 40
      56.999985
  0
LINE
  8
0
  6
MITTELLINIE
 62
     8
 10
     767.804260
 20
     512.714722
 11
     787.603088
 21
     492.915894
  0
LINE
  8
0
  6
MITTELLINIE
 62
     8
 10
     767.804260
 20
     492.915894
 11
     787.603088
 21
     512.714722
  0
LINE
  8
0
  6
MITTELLINIE
 62
     8
 10
     524.703735
 20
     312.814392
 11
     524.703735
 21
    1312.814209
  0
LINE
  8
0
  6
MITTELLINIE
 62
     8
 10
     834.703369
 20
    1553.351196
 11
     834.703369
 21
    1489.894165
  0
LINE
  8
0
  6
MITTELLINIE
 62
     8
 10
     524.703247
 20
    1551.257446
 11
     524.703247
 21
    1504.970337
  0
LINE
  8
0
  6
MITTELLINIE
 62
     8
 10
     768.703674
 20
     502.814331
 11
     900.703613
 21
     502.814331
  0
LINE
  8
0
  6
MITTELLINIE
 62
     8
 10
     834.703613
 20
     568.814331
 11
     834.703613
 21
     436.814362
  0
LINE
  8
0
  6
MITTELLINIE
 62
     8
 10
    1024.703613
 20
     812.814270
 11
      24.703590
 21
     812.814270
  0
LINE
  8
0
  6
MITTELLINIE
 62
     8
 10
    2034.703125
 20
    1553.351196
 11
    2034.703125
 21
    1489.894165
  0
LINE
  8
0
  6
MITTELLINIE
 62
     8
 10
    1724.703003
 20
    1551.257446
 11
    1724.703003
 21
    1504.970337
  0
LINE
  8
0
 10
     503.241333
 20
    1513.614868
 11
     767.840393
 21
    1507.884399
  0
LINE
  8
0
 10
     901.313232
 20
    1508.110962
 11
     947.111572
 21
    1510.441040
  0
LINE
  8
0
 10
     883.267334
 20
    1497.632446
 11
     786.085022
 21
    1497.632446
  0
LINE
  8
0
 10
      30.703346
 20
    1513.614868
 11
    1019.703369
 21
    1513.614868
  0
LINE
  8
0
 10
      24.703346
 20
    1519.614868
 11
      24.703346
 21
    1536.614868
  0
LINE
  8
0
 10
    1024.703125
 20
    1536.614868
 11
    1024.703369
 21
    1518.614868
  0
LINE
  8
0
 10
      33.703346
 20
    1545.614868
 11
    1015.703125
 21
    1545.614868
  0
LINE
  8
0
 10
     849.703613
 20
    1252.814209
 11
     199.703552
 21
    1252.814209
  0
LINE
  8
0
 10
     964.703369
 20
     487.814331
 11
     964.703613
 21
    1137.814209
  0
LINE
  8
0
 10
     849.703613
 20
     372.814362
 11
     524.703735
 21
     372.814362
  0
LINE
  8
0
 10
      84.703575
 20
     812.814270
 11
      84.703575
 21
    1137.814209
  0
LINE
  8
0
 10
    1004.703613
 20
     312.814392
 11
     524.703735
 21
     312.814392
  0
LINE
  8
0
 10
    1024.703613
 20
     332.814392
 11
    1024.703613
 21
    1292.814209
  0
LINE
  8
0
 10
    1004.703613
 20
    1312.814209
 11
      44.703590
 21
    1312.814209
  0
LINE
  8
0
 10
      24.703590
 20
     812.814270
 11
      24.703590
 21
    1292.814209
  0
LINE
  8
0
 10
    1703.241089
 20
    1513.614868
 11
    1967.840088
 21
    1507.884399
  0
LINE
  8
0
 10
    2101.312988
 20
    1508.110962
 11
    2147.111328
 21
    1510.441040
  0
LINE
  8
0
 10
    2083.267090
 20
    1497.632446
 11
    1986.084961
 21
    1497.632446
  0
LINE
  8
0
 10
    1230.703003
 20
    1513.614868
 11
    2219.703125
 21
    1513.614868
  0
LINE
  8
0
 10
    1224.703003
 20
    1519.614868
 11
    1224.703003
 21
    1536.614868
  0
LINE
  8
0
 10
    2224.703125
 20
    1536.614868
 11
    2224.703125
 21
    1518.614868
  0
LINE
  8
0
 10
    1233.703003
 20
    1545.614868
 11
    2215.703125
 21
    1545.614868
  0
ARC
  8
0
 10
     767.514465
 20
    1492.835571
 40
      15.051291
 50
      29.758713
 51
      88.759117
  0
ARC
  8
0
 10
     902.075684
 20
    1493.130493
 40
      14.999996
 50
      92.913628
 51
     148.480469
  0
ARC
  8
0
 10
     946.197021
 20
    1528.411743
 40
      17.993170
 50
     272.913330
 51
     304.676361
  0
ARC
  8
0
 10
    1019.703369
 20
    1518.614868
 40
       4.999999
 50
     270.000000
 51
       0.000000
  0
ARC
  8
0
 10
     883.321533
 20
    1504.632446
 40
       6.999998
 50
     270.000000
 51
     328.475250
  0
ARC
  8
0
 10
     786.085022
 20
    1504.632446
 40
       6.999998
 50
     218.170471
 51
     270.000000
  0
ARC
  8
0
 10
      30.703346
 20
    1519.614868
 40
       5.999999
 50
     180.000000
 51
     270.000000
  0
ARC
  8
0
 10
    1015.703125
 20
    1536.614868
 40
       8.999998
 50
       0.000000
 51
      90.000000
  0
ARC
  8
0
 10
      33.703346
 20
    1536.614868
 40
       8.999998
 50
      90.000000
 51
     180.000000
  0
ARC
  8
0
 10
     199.703552
 20
    1137.814209
 40
     115.000000
 50
      90.000000
 51
     180.000000
  0
ARC
  8
0
 10
     849.703613
 20
    1137.814209
 40
     114.999985
 50
       0.000000
 51
      90.000000
  0
ARC
  8
0
 10
     849.703613
 20
     487.814331
 40
     114.999939
 50
     270.000000
 51
       0.000000
  0
ARC
  8
0
 10
     524.703491
 20
     812.814270
 40
     439.999908
 50
     180.000000
 51
     270.000031
  0
ARC
  8
0
 10
     524.703491
 20
     812.814270
 40
     499.999878
 50
     180.000000
 51
     270.000031
  0
ARC
  8
0
 10
    1004.703613
 20
     332.814392
 40
      19.999996
 50
     270.000000
 51
       0.000000
  0
ARC
  8
0
 10
    1004.703613
 20
    1292.814209
 40
      19.999996
 50
       0.000000
 51
      90.000000
  0
ARC
  8
0
 10
      44.703590
 20
    1292.814209
 40
      19.999996
 50
      90.000000
 51
     180.000000
  0
ARC
  8
0
 10
    1967.514160
 20
    1492.835571
 40
      15.051291
 50
      29.758713
 51
      88.759117
  0
ARC
  8
0
 10
    2102.075195
 20
    1493.130493
 40
      14.999996
 50
      92.912697
 51
     148.479980
  0
ARC
  8
0
 10
    2146.196777
 20
    1528.411743
 40
      17.993170
 50
     272.913330
 51
     304.676361
  0
ARC
  8
0
 10
    2219.703125
 20
    1518.614868
 40
       4.999999
 50
     270.000000
 51
       0.000000
  0
ARC
  8
0
 10
    2083.321289
 20
    1504.632446
 40
       6.999998
 50
     270.000000
 51
     328.474182
  0
ARC
  8
0
 10
    1986.084961
 20
    1504.632446
 40
       6.999998
 50
     218.169220
 51
     270.000000
  0
ARC
  8
0
 10
    1230.703003
 20
    1519.614868
 40
       5.999999
 50
     180.000000
 51
     270.000000
  0
ARC
  8
0
 10
    2215.703125
 20
    1536.614868
 40
       8.999998
 50
       0.000000
 51
      90.000000
  0
ARC
  8
0
 10
    1233.703003
 20
    1536.614868
 40
       8.999998
 50
      90.000000
 51
     180.000000
  0
CIRCLE
  8
0
 10
     834.703613
 20
     502.814331
 40
      44.999989
  0
TEXT
  8
0
 10
    1469.370239
 20
    1174.671631
 40
      99.999985
 50
       0.000356
 51
       0.000000
 41
       0.746667
  1
ZIRKON
 72
     3
 11
    1762.703491
 21
    1174.673462
  0
TEXT
  8
0
 10
    2290.362305
 20
     799.394348
 40
      66.666656
 50
       0.001291
 51
       0.000000
 41
       0.910000
  1
35
 72
     3
 11
    2359.695557
 21
     799.395935
  0
TEXT
  8
0
 10
    1957.028809
 20
     799.394348
 40
      66.666656
 50
       0.000689
 51
       0.000000
 41
       0.910000
  1
1000
 72
     3
 11
    2102.195557
 21
     799.396118
  0
TEXT
  8
0
 10
    1623.695923
 20
     799.396301
 40
      66.666656
 50
       0.000689
 51
       0.000000
 41
       0.910000
  1
1000
 72
     3
 11
    1768.862549
 21
     799.398071
  0
TEXT
  8
0
 10
    1290.362915
 20
     799.396301
 40
      66.666656
 50
       0.000861
 51
       0.000000
 41
       0.910000
  1
606
 72
     3
 11
    1403.029541
 21
     799.398010
  0
TEXT
  8
0
 10
    2290.362305
 20
     999.394287
 40
      66.666656
 50
       0.000000
 51
       0.000000
 41
       0.910000
  1
Tiefe
 72
     3
 11
    2457.195557
 21
     999.394287
  0
TEXT
  8
0
 10
    1957.029785
 20
     999.394287
 40
      66.666656
 50
       0.000000
 51
       0.000000
 41
       0.910000
  1
Breite
 72
     3
 11
    2155.799805
 21
     999.394287
  0
TEXT
  8
0
 10
    1623.696899
 20
     999.396240
 40
      66.666656
 50
       0.000430
 51
       0.000000
 41
       0.910000
  1
Laenge
 72
     3
 11
    1866.363525
 21
     999.398071
  0
TEXT
  8
0
 10
    1290.363892
 20
     999.396240
 40
      66.666656
 50
       0.000000
 51
       0.000000
 41
       0.910000
  1
Modell
 72
     3
 11
    1498.363892
 21
     999.396240
  0
ENDSEC
  0
EOF
